ISO-10303-21;
HEADER;
FILE_DESCRIPTION (( 'STEP AP203' ),
    '1' );
FILE_NAME ('693023.STEP',
    '2024-07-15T02:28:02',
    ( 'Windows User' ),
    ( 'P R C' ),
    'SwSTEP 2.0',
    'SolidWorks 2020',
    '' );
FILE_SCHEMA (( 'CONFIG_CONTROL_DESIGN' ));
ENDSEC;

DATA;
#1 = DIRECTION ( 'NONE',  ( -0.000000000000000000, -1.000000000000000000, -0.000000000000000000 ) ) ;
#2 = APPROVAL ( #205, 'Î´Ö¸¶¨' ) ;
#3 = DIRECTION ( 'NONE',  ( 0.000000000000000000, 0.000000000000000000, -1.000000000000000000 ) ) ;
#4 = AXIS2_PLACEMENT_3D ( 'NONE', #292, #213, #3 ) ;
#5 = DIRECTION ( 'NONE',  ( 0.000000000000000000, 0.000000000000000000, 1.000000000000000000 ) ) ;
#6 = VERTEX_POINT ( 'NONE', #105 ) ;
#7 = ADVANCED_FACE ( 'NONE', ( #200, #180 ), #304, .T. ) ;
#8 = CARTESIAN_POINT ( 'NONE',  ( 0.000000000000000000, 10.32299999999999862, 13.36999999999999922 ) ) ;
#9 = ORIENTED_EDGE ( 'NONE', *, *, #242, .T. ) ;
#10 = AXIS2_PLACEMENT_3D ( 'NONE', #95, #204, #306 ) ;
#11 = APPLICATION_PROTOCOL_DEFINITION ( 'international standard', 'config_control_design', 1994, #92 ) ;
#12 = CARTESIAN_POINT ( 'NONE',  ( 0.000000000000000000, 0.000000000000000000, 0.000000000000000000 ) ) ;
#13 = EDGE_CURVE ( 'NONE', #135, #135, #223, .T. ) ;
#14 = CARTESIAN_POINT ( 'NONE',  ( 0.000000000000000000, 5.417063118088178086, 12.30492005524072141 ) ) ;
#15 = EDGE_LOOP ( 'NONE', ( #44 ) ) ;
#16 = CIRCLE ( 'NONE', #278, 11.50000000000000000 ) ;
#17 = APPROVAL_ROLE ( '' ) ;
#18 = EDGE_LOOP ( 'NONE', ( #9 ) ) ;
#19 = PERSON_AND_ORGANIZATION ( #76, #207 ) ;
#20 = CARTESIAN_POINT ( 'NONE',  ( 0.000000000000000000, 12.52300000000000679, 0.000000000000000000 ) ) ;
#21 = FACE_OUTER_BOUND ( 'NONE', #295, .T. ) ;
#22 = CONICAL_SURFACE ( 'NONE', #110, 13.36999999999999922, 0.7853981633974380649 ) ;
#23 = CARTESIAN_POINT ( 'NONE',  ( 0.000000000000000000, 1.986486486486499503, 0.000000000000000000 ) ) ;
#24 = DIRECTION ( 'NONE',  ( 0.000000000000000000, 0.000000000000000000, 1.000000000000000000 ) ) ;
#25 = FACE_OUTER_BOUND ( 'NONE', #86, .T. ) ;
#26 = AXIS2_PLACEMENT_3D ( 'NONE', #71, #68, #307 ) ;
#27 = PLANE ( 'NONE',  #334 ) ;
#28 = PRODUCT_DEFINITION_FORMATION_WITH_SPECIFIED_SOURCE ( 'ÈÎºÎ', '', #301, .NOT_KNOWN. ) ;
#29 = CC_DESIGN_DATE_AND_TIME_ASSIGNMENT ( #64, #177, ( #78 ) ) ;
#30 = DIRECTION ( 'NONE',  ( 0.000000000000000000, 0.000000000000000000, -1.000000000000000000 ) ) ;
#31 = DIRECTION ( 'NONE',  ( 0.000000000000000000, 1.000000000000000000, 0.000000000000000000 ) ) ;
#32 = DIRECTION ( 'NONE',  ( 0.000000000000000000, -0.000000000000000000, -1.000000000000000000 ) ) ;
#33 = DIRECTION ( 'NONE',  ( 0.000000000000000000, 1.000000000000000000, 0.000000000000000000 ) ) ;
#34 = CC_DESIGN_APPROVAL ( #70, ( #28 ) ) ;
#35 = ADVANCED_FACE ( 'NONE', ( #127, #72 ), #176, .T. ) ;
#36 = EDGE_LOOP ( 'NONE', ( #267 ) ) ;
#37 = CARTESIAN_POINT ( 'NONE',  ( 0.000000000000000000, 13.02300000000000679, -11.50000000000000000 ) ) ;
#38 = ORIENTED_EDGE ( 'NONE', *, *, #242, .F. ) ;
#39 = COORDINATED_UNIVERSAL_TIME_OFFSET ( 8, 0, .AHEAD. ) ;
#40 = ORIENTED_EDGE ( 'NONE', *, *, #285, .F. ) ;
#41 = AXIS2_PLACEMENT_3D ( 'NONE', #259, #31, #290 ) ;
#42 = CC_DESIGN_PERSON_AND_ORGANIZATION_ASSIGNMENT ( #165, #58, ( #301 ) ) ;
#43 = DIRECTION ( 'NONE',  ( -0.000000000000000000, -1.000000000000000000, -0.000000000000000000 ) ) ;
#44 = ORIENTED_EDGE ( 'NONE', *, *, #148, .F. ) ;
#45 = PERSON_AND_ORGANIZATION_ROLE ( 'classification_officer' ) ;
#46 = CLOSED_SHELL ( 'NONE', ( #332, #253, #309, #7, #133, #214, #66, #313, #85, #35, #163, #121, #139 ) ) ;
#47 = EDGE_LOOP ( 'NONE', ( #206 ) ) ;
#48 = DIRECTION ( 'NONE',  ( 0.000000000000000000, 0.000000000000000000, 1.000000000000000000 ) ) ;
#49 = ORIENTED_EDGE ( 'NONE', *, *, #13, .F. ) ;
#50 = CC_DESIGN_PERSON_AND_ORGANIZATION_ASSIGNMENT ( #124, #119, ( #28 ) ) ;
#51 = FACE_OUTER_BOUND ( 'NONE', #118, .T. ) ;
#52 = CIRCLE ( 'NONE', #93, 12.86999999999999567 ) ;
#53 = CARTESIAN_POINT ( 'NONE',  ( 0.000000000000000000, 1.986486486486499503, 13.36999999999999922 ) ) ;
#54 = DIRECTION ( 'NONE',  ( 0.000000000000000000, 0.000000000000000000, 1.000000000000000000 ) ) ;
#55 = DIRECTION ( 'NONE',  ( 0.000000000000000000, -1.000000000000000000, 0.000000000000000000 ) ) ;
#56 = EDGE_CURVE ( 'NONE', #6, #6, #89, .T. ) ;
#57 = APPROVAL_PERSON_ORGANIZATION ( #245, #201, #171 ) ;
#58 = PERSON_AND_ORGANIZATION_ROLE ( 'design_owner' ) ;
#59 = CALENDAR_DATE ( 2024, 15, 7 ) ;
#60 = EDGE_LOOP ( 'NONE', ( #141 ) ) ;
#61 = CARTESIAN_POINT ( 'NONE',  ( 0.000000000000000000, 10.82299999999999862, -12.86999999999999567 ) ) ;
#62 = VERTEX_POINT ( 'NONE', #37 ) ;
#63 = ADVANCED_BREP_SHAPE_REPRESENTATION ( '693023', ( #97, #195 ), #234 ) ;
#64 = DATE_AND_TIME ( #153, #268 ) ;
#65 = ORIENTED_EDGE ( 'NONE', *, *, #168, .T. ) ;
#66 = ADVANCED_FACE ( 'NONE', ( #149, #91 ), #276, .T. ) ;
#67 = AXIS2_PLACEMENT_3D ( 'NONE', #137, #1, #288 ) ;
#68 = DIRECTION ( 'NONE',  ( 0.000000000000000000, 1.000000000000000000, 0.000000000000000000 ) ) ;
#69 = DIRECTION ( 'NONE',  ( 0.000000000000000000, 0.000000000000000000, -1.000000000000000000 ) ) ;
#70 = APPROVAL ( #244, 'Î´Ö¸¶¨' ) ;
#71 = CARTESIAN_POINT ( 'NONE',  ( -13.36999999999999567, 1.986486486486471748, 0.000000000000000000 ) ) ;
#72 = FACE_BOUND ( 'NONE', #329, .T. ) ;
#73 = ORIENTED_EDGE ( 'NONE', *, *, #323, .F. ) ;
#74 = CARTESIAN_POINT ( 'NONE',  ( 0.000000000000000000, 0.5000000000000004441, 0.000000000000000000 ) ) ;
#75 = CC_DESIGN_PERSON_AND_ORGANIZATION_ASSIGNMENT ( #273, #266, ( #319 ) ) ;
#76 = PERSON ( 'Î´Ö¸¶¨', 'Î´Ö¸¶¨', 'Î´Ö¸¶¨', ('Î´Ö¸¶¨'), ('Î´Ö¸¶¨'), ('Î´Ö¸¶¨') ) ;
#77 = FACE_OUTER_BOUND ( 'NONE', #279, .T. ) ;
#78 = SECURITY_CLASSIFICATION ( '', '', #173 ) ;
#79 = DIRECTION ( 'NONE',  ( -3.243686379911756830E-17, -1.000000000000000000, -0.000000000000000000 ) ) ;
#80 = FACE_OUTER_BOUND ( 'NONE', #281, .T. ) ;
#81 = DIRECTION ( 'NONE',  ( 0.000000000000000000, -1.000000000000000000, 0.000000000000000000 ) ) ;
#82 = CIRCLE ( 'NONE', #202, 13.36999999999999922 ) ;
#83 = AXIS2_PLACEMENT_3D ( 'NONE', #252, #251, #120 ) ;
#84 = ORIENTED_EDGE ( 'NONE', *, *, #323, .T. ) ;
#85 = ADVANCED_FACE ( 'NONE', ( #283, #21 ), #22, .T. ) ;
#86 = EDGE_LOOP ( 'NONE', ( #73 ) ) ;
#87 = PERSON_AND_ORGANIZATION_ROLE ( 'creator' ) ;
#88 = EDGE_LOOP ( 'NONE', ( #248 ) ) ;
#89 = CIRCLE ( 'NONE', #108, 12.00000000000000178 ) ;
#90 = AXIS2_PLACEMENT_3D ( 'NONE', #228, #178, #328 ) ;
#91 = FACE_BOUND ( 'NONE', #36, .T. ) ;
#92 = APPLICATION_CONTEXT ( 'configuration controlled 3d designs of mechanical parts and assemblies' ) ;
#93 = AXIS2_PLACEMENT_3D ( 'NONE', #187, #55, #235 ) ;
#94 = DIRECTION ( 'NONE',  ( 0.000000000000000000, 1.000000000000000000, 0.000000000000000000 ) ) ;
#95 = CARTESIAN_POINT ( 'NONE',  ( 0.000000000000000000, 10.82299999999999862, 0.000000000000000000 ) ) ;
#96 = EDGE_LOOP ( 'NONE', ( #320 ) ) ;
#97 = MANIFOLD_SOLID_BREP ( 'N', #46 ) ;
#98 = DIRECTION ( 'NONE',  ( 0.000000000000000000, 1.000000000000000000, 0.000000000000000000 ) ) ;
#99 = EDGE_CURVE ( 'NONE', #212, #212, #181, .T. ) ;
#100 = FACE_OUTER_BOUND ( 'NONE', #15, .T. ) ;
#101 = CARTESIAN_POINT ( 'NONE',  ( 0.000000000000000000, 10.32299999999999862, 0.000000000000000000 ) ) ;
#102 = DIRECTION ( 'NONE',  ( 0.000000000000000000, -1.000000000000000000, 0.000000000000000000 ) ) ;
#103 = CIRCLE ( 'NONE', #67, 12.30492005524072141 ) ;
#104 = DIRECTION ( 'NONE',  ( -0.000000000000000000, -1.000000000000000000, -0.000000000000000000 ) ) ;
#105 = CARTESIAN_POINT ( 'NONE',  ( 0.000000000000000000, 12.52300000000000679, -12.00000000000000178 ) ) ;
#106 = CC_DESIGN_PERSON_AND_ORGANIZATION_ASSIGNMENT ( #113, #87, ( #28 ) ) ;
#107 =( NAMED_UNIT ( * ) PLANE_ANGLE_UNIT ( ) SI_UNIT ( $, .RADIAN. ) );
#108 = AXIS2_PLACEMENT_3D ( 'NONE', #20, #43, #284 ) ;
#109 = ORIENTED_EDGE ( 'NONE', *, *, #99, .F. ) ;
#110 = AXIS2_PLACEMENT_3D ( 'NONE', #183, #125, #69 ) ;
#111 = CALENDAR_DATE ( 2024, 15, 7 ) ;
#112 = EDGE_LOOP ( 'NONE', ( #166 ) ) ;
#113 = PERSON_AND_ORGANIZATION ( #76, #207 ) ;
#114 = CARTESIAN_POINT ( 'NONE',  ( 0.000000000000000000, 1.986486486486499503, 12.30492005524072141 ) ) ;
#115 = EDGE_LOOP ( 'NONE', ( #219 ) ) ;
#116 = AXIS2_PLACEMENT_3D ( 'NONE', #122, #227, #48 ) ;
#117 = CARTESIAN_POINT ( 'NONE',  ( 0.000000000000000000, 0.5000000000000004441, 13.36999999999999922 ) ) ;
#118 = EDGE_LOOP ( 'NONE', ( #246 ) ) ;
#119 = PERSON_AND_ORGANIZATION_ROLE ( 'design_supplier' ) ;
#120 = DIRECTION ( 'NONE',  ( 0.000000000000000000, -6.487372759823511195E-17, 1.000000000000000000 ) ) ;
#121 = ADVANCED_FACE ( 'NONE', ( #233, #154 ), #229, .T. ) ;
#122 = CARTESIAN_POINT ( 'NONE',  ( 0.000000000000000000, 0.000000000000000000, 0.000000000000000000 ) ) ;
#123 = APPROVAL_PERSON_ORGANIZATION ( #146, #2, #226 ) ;
#124 = PERSON_AND_ORGANIZATION ( #76, #207 ) ;
#125 = DIRECTION ( 'NONE',  ( 0.000000000000000000, -1.000000000000000000, 0.000000000000000000 ) ) ;
#126 = COORDINATED_UNIVERSAL_TIME_OFFSET ( 8, 0, .AHEAD. ) ;
#127 = FACE_OUTER_BOUND ( 'NONE', #331, .T. ) ;
#128 = CYLINDRICAL_SURFACE ( 'NONE', #243, 12.30492005524072141 ) ;
#129 = CIRCLE ( 'NONE', #255, 12.30492005524072141 ) ;
#130 = CARTESIAN_POINT ( 'NONE',  ( 0.000000000000000000, 5.417063118088178086, 12.87000000000000277 ) ) ;
#131 = FACE_BOUND ( 'NONE', #47, .T. ) ;
#132 = CARTESIAN_POINT ( 'NONE',  ( 0.000000000000000000, 5.417063118088178086, 0.000000000000000000 ) ) ;
#133 = ADVANCED_FACE ( 'NONE', ( #258, #25 ), #128, .T. ) ;
#134 = AXIS2_PLACEMENT_3D ( 'NONE', #232, #98, #182 ) ;
#135 = VERTEX_POINT ( 'NONE', #53 ) ;
#136 = APPROVAL_PERSON_ORGANIZATION ( #247, #70, #17 ) ;
#137 = CARTESIAN_POINT ( 'NONE',  ( 0.000000000000000000, 1.986486486486499503, 0.000000000000000000 ) ) ;
#138 = DATE_AND_TIME ( #162, #282 ) ;
#139 = ADVANCED_FACE ( 'N', ( #310 ), #280, .T. ) ;
#140 = DATE_TIME_ROLE ( 'creation_date' ) ;
#141 = ORIENTED_EDGE ( 'NONE', *, *, #56, .F. ) ;
#142 = APPROVAL_DATE_TIME ( #269, #70 ) ;
#143 = EDGE_LOOP ( 'NONE', ( #197 ) ) ;
#144 = EDGE_CURVE ( 'NONE', #239, #239, #217, .T. ) ;
#145 = DATE_AND_TIME ( #59, #186 ) ;
#146 = PERSON_AND_ORGANIZATION ( #76, #207 ) ;
#147 = EDGE_LOOP ( 'NONE', ( #49 ) ) ;
#148 = EDGE_CURVE ( 'NONE', #335, #335, #308, .T. ) ;
#149 = FACE_OUTER_BOUND ( 'NONE', #170, .T. ) ;
#150 = DIRECTION ( 'NONE',  ( 0.000000000000000000, -0.000000000000000000, 1.000000000000000000 ) ) ;
#151 = AXIS2_PLACEMENT_3D ( 'NONE', #190, #33, #5 ) ;
#152 = DIRECTION ( 'NONE',  ( -0.000000000000000000, -1.000000000000000000, -0.000000000000000000 ) ) ;
#153 = CALENDAR_DATE ( 2024, 15, 7 ) ;
#154 = FACE_OUTER_BOUND ( 'NONE', #60, .T. ) ;
#155 = CARTESIAN_POINT ( 'NONE',  ( 0.000000000000000000, 5.917063118088178086, 0.000000000000000000 ) ) ;
#156 = AXIS2_PLACEMENT_3D ( 'NONE', #101, #104, #261 ) ;
#157 = CYLINDRICAL_SURFACE ( 'NONE', #41, 13.36999999999999922 ) ;
#158 = DIRECTION ( 'NONE',  ( 0.000000000000000000, 0.000000000000000000, 1.000000000000000000 ) ) ;
#159 = CYLINDRICAL_SURFACE ( 'NONE', #4, 12.00000000000000178 ) ;
#160 = FACE_OUTER_BOUND ( 'NONE', #143, .T. ) ;
#161 = CIRCLE ( 'NONE', #324, 13.36999999999999922 ) ;
#162 = CALENDAR_DATE ( 2024, 15, 7 ) ;
#163 = ADVANCED_FACE ( 'NONE', ( #77, #100 ), #159, .T. ) ;
#164 = COORDINATED_UNIVERSAL_TIME_OFFSET ( 8, 0, .AHEAD. ) ;
#165 = PERSON_AND_ORGANIZATION ( #76, #207 ) ;
#166 = ORIENTED_EDGE ( 'NONE', *, *, #285, .T. ) ;
#167 = CC_DESIGN_APPROVAL ( #2, ( #78 ) ) ;
#168 = EDGE_CURVE ( 'NONE', #241, #241, #303, .T. ) ;
#169 = APPROVAL_DATE_TIME ( #138, #201 ) ;
#170 = EDGE_LOOP ( 'NONE', ( #302 ) ) ;
#171 = APPROVAL_ROLE ( '' ) ;
#172 = EDGE_LOOP ( 'NONE', ( #65 ) ) ;
#173 = SECURITY_CLASSIFICATION_LEVEL ( 'unclassified' ) ;
#174 = ORIENTED_EDGE ( 'NONE', *, *, #56, .T. ) ;
#175 = CALENDAR_DATE ( 2024, 15, 7 ) ;
#176 = PLANE ( 'NONE',  #134 ) ;
#177 = DATE_TIME_ROLE ( 'classification_date' ) ;
#178 = DIRECTION ( 'NONE',  ( 0.000000000000000000, -1.000000000000000000, 0.000000000000000000 ) ) ;
#179 = SHAPE_DEFINITION_REPRESENTATION ( #291, #63 ) ;
#180 = FACE_BOUND ( 'NONE', #277, .T. ) ;
#181 = CIRCLE ( 'NONE', #116, 12.86999999999999744 ) ;
#182 = DIRECTION ( 'NONE',  ( 0.000000000000000000, -0.000000000000000000, 1.000000000000000000 ) ) ;
#183 = CARTESIAN_POINT ( 'NONE',  ( 0.000000000000000000, 10.32299999999999862, 0.000000000000000000 ) ) ;
#184 = DIRECTION ( 'NONE',  ( 0.000000000000000000, 1.000000000000000000, 0.000000000000000000 ) ) ;
#185 = EDGE_CURVE ( 'NONE', #297, #297, #82, .T. ) ;
#186 = LOCAL_TIME ( 10, 28, 2.000000000000000000, #39 ) ;
#187 = CARTESIAN_POINT ( 'NONE',  ( 0.000000000000000000, 10.82299999999999862, 0.000000000000000000 ) ) ;
#188 = CARTESIAN_POINT ( 'NONE',  ( 0.000000000000000000, 0.000000000000000000, 12.86999999999999744 ) ) ;
#189 = DIRECTION ( 'NONE',  ( 0.000000000000000000, -0.000000000000000000, -1.000000000000000000 ) ) ;
#190 = CARTESIAN_POINT ( 'NONE',  ( 0.000000000000000000, 13.09459459459461073, 0.000000000000000000 ) ) ;
#191 = VERTEX_POINT ( 'NONE', #14 ) ;
#192 = ORIENTED_EDGE ( 'NONE', *, *, #144, .T. ) ;
#193 = CARTESIAN_POINT ( 'NONE',  ( 0.000000000000000000, 10.82299999999999862, -12.00000000000000178 ) ) ;
#194 = APPLICATION_CONTEXT ( 'configuration controlled 3d designs of mechanical parts and assemblies' ) ;
#195 = AXIS2_PLACEMENT_3D ( 'NONE', #12, #196, #325 ) ;
#196 = DIRECTION ( 'NONE',  ( 0.000000000000000000, 0.000000000000000000, 1.000000000000000000 ) ) ;
#197 = ORIENTED_EDGE ( 'NONE', *, *, #185, .F. ) ;
#198 = UNCERTAINTY_MEASURE_WITH_UNIT (LENGTH_MEASURE( 1.000000000000000082E-05 ), #222, 'distance_accuracy_value', 'NONE');
#199 = APPLICATION_PROTOCOL_DEFINITION ( 'international standard', 'config_control_design', 1994, #194 ) ;
#200 = FACE_OUTER_BOUND ( 'NONE', #147, .T. ) ;
#201 = APPROVAL ( #271, 'Î´Ö¸¶¨' ) ;
#202 = AXIS2_PLACEMENT_3D ( 'NONE', #315, #215, #316 ) ;
#203 = CARTESIAN_POINT ( 'NONE',  ( 0.000000000000000000, 13.02300000000000679, 0.000000000000000000 ) ) ;
#204 = DIRECTION ( 'NONE',  ( -0.000000000000000000, -1.000000000000000000, -0.000000000000000000 ) ) ;
#205 = APPROVAL_STATUS ( 'not_yet_approved' ) ;
#206 = ORIENTED_EDGE ( 'NONE', *, *, #275, .F. ) ;
#207 = ORGANIZATION ( 'Î´Ö¸¶¨', 'Î´Ö¸¶¨', '' ) ;
#208 = DIRECTION ( 'NONE',  ( 0.000000000000000000, 0.000000000000000000, 1.000000000000000000 ) ) ;
#209 = CARTESIAN_POINT ( 'NONE',  ( 0.000000000000000000, 13.02300000000000679, 0.000000000000000000 ) ) ;
#210 = FACE_OUTER_BOUND ( 'NONE', #172, .T. ) ;
#211 = AXIS2_PLACEMENT_3D ( 'NONE', #312, #81, #189 ) ;
#212 = VERTEX_POINT ( 'NONE', #188 ) ;
#213 = DIRECTION ( 'NONE',  ( -0.000000000000000000, -1.000000000000000000, -0.000000000000000000 ) ) ;
#214 = ADVANCED_FACE ( 'NONE', ( #80, #131 ), #262, .T. ) ;
#215 = DIRECTION ( 'NONE',  ( -0.000000000000000000, -1.000000000000000000, -0.000000000000000000 ) ) ;
#216 = AXIS2_PLACEMENT_3D ( 'NONE', #23, #152, #24 ) ;
#217 = CIRCLE ( 'NONE', #224, 12.87000000000000277 ) ;
#218 = VERTEX_POINT ( 'NONE', #318 ) ;
#219 = ORIENTED_EDGE ( 'NONE', *, *, #299, .F. ) ;
#220 = VERTEX_POINT ( 'NONE', #114 ) ;
#221 = PRODUCT_RELATED_PRODUCT_CATEGORY ( 'detail', '', ( #301 ) ) ;
#222 =( LENGTH_UNIT ( ) NAMED_UNIT ( * ) SI_UNIT ( .MILLI., .METRE. ) );
#223 = CIRCLE ( 'NONE', #216, 13.36999999999999922 ) ;
#224 = AXIS2_PLACEMENT_3D ( 'NONE', #254, #230, #330 ) ;
#225 =( NAMED_UNIT ( * ) SI_UNIT ( $, .STERADIAN. ) SOLID_ANGLE_UNIT ( ) );
#226 = APPROVAL_ROLE ( '' ) ;
#227 = DIRECTION ( 'NONE',  ( -0.000000000000000000, -1.000000000000000000, -0.000000000000000000 ) ) ;
#228 = CARTESIAN_POINT ( 'NONE',  ( 0.000000000000000000, 12.52300000000000679, 0.000000000000000000 ) ) ;
#229 = CONICAL_SURFACE ( 'NONE', #90, 12.00000000000000355, 0.7853981633974518317 ) ;
#230 = DIRECTION ( 'NONE',  ( 0.000000000000000000, -1.000000000000000000, -3.243686379911756214E-17 ) ) ;
#231 = CC_DESIGN_DATE_AND_TIME_ASSIGNMENT ( #145, #140, ( #319 ) ) ;
#232 = CARTESIAN_POINT ( 'NONE',  ( -13.36999999999999567, 10.82299999999999862, 0.000000000000000000 ) ) ;
#233 = FACE_BOUND ( 'NONE', #112, .T. ) ;
#234 =( GEOMETRIC_REPRESENTATION_CONTEXT ( 3 ) GLOBAL_UNCERTAINTY_ASSIGNED_CONTEXT ( ( #198 ) ) GLOBAL_UNIT_ASSIGNED_CONTEXT ( ( #222, #107, #225 ) ) REPRESENTATION_CONTEXT ( 'NONE', 'WORKASPACE' ) );
#235 = DIRECTION ( 'NONE',  ( 0.000000000000000000, 0.000000000000000000, -1.000000000000000000 ) ) ;
#236 = CYLINDRICAL_SURFACE ( 'NONE', #151, 13.36999999999999922 ) ;
#237 = FACE_OUTER_BOUND ( 'NONE', #88, .T. ) ;
#238 = CC_DESIGN_SECURITY_CLASSIFICATION ( #78, ( #28 ) ) ;
#239 = VERTEX_POINT ( 'NONE', #130 ) ;
#240 = CARTESIAN_POINT ( 'NONE',  ( 0.000000000000000000, 0.000000000000000000, 0.000000000000000000 ) ) ;
#241 = VERTEX_POINT ( 'NONE', #8 ) ;
#242 = EDGE_CURVE ( 'NONE', #321, #321, #52, .T. ) ;
#243 = AXIS2_PLACEMENT_3D ( 'NONE', #333, #94, #208 ) ;
#244 = APPROVAL_STATUS ( 'not_yet_approved' ) ;
#245 = PERSON_AND_ORGANIZATION ( #76, #207 ) ;
#246 = ORIENTED_EDGE ( 'NONE', *, *, #13, .T. ) ;
#247 = PERSON_AND_ORGANIZATION ( #76, #207 ) ;
#248 = ORIENTED_EDGE ( 'NONE', *, *, #99, .T. ) ;
#249 = CC_DESIGN_APPROVAL ( #201, ( #319 ) ) ;
#250 = APPROVAL_DATE_TIME ( #256, #2 ) ;
#251 = DIRECTION ( 'NONE',  ( -0.000000000000000000, 1.000000000000000000, 3.243686379911756214E-17 ) ) ;
#252 = CARTESIAN_POINT ( 'NONE',  ( 0.000000000000000000, 5.917063118088178086, 0.000000000000000000 ) ) ;
#253 = ADVANCED_FACE ( 'NONE', ( #265, #289 ), #287, .T. ) ;
#254 = CARTESIAN_POINT ( 'NONE',  ( 0.000000000000000000, 5.417063118088178086, 0.000000000000000000 ) ) ;
#255 = AXIS2_PLACEMENT_3D ( 'NONE', #132, #311, #158 ) ;
#256 = DATE_AND_TIME ( #175, #314 ) ;
#257 = ORIENTED_EDGE ( 'NONE', *, *, #148, .T. ) ;
#258 = FACE_OUTER_BOUND ( 'NONE', #270, .T. ) ;
#259 = CARTESIAN_POINT ( 'NONE',  ( 0.000000000000000000, 13.09459459459461073, 0.000000000000000000 ) ) ;
#260 = AXIS2_PLACEMENT_3D ( 'NONE', #74, #184, #54 ) ;
#261 = DIRECTION ( 'NONE',  ( 0.000000000000000000, 0.000000000000000000, 1.000000000000000000 ) ) ;
#262 = PLANE ( 'NONE',  #211 ) ;
#263 = FACE_OUTER_BOUND ( 'NONE', #115, .T. ) ;
#264 = AXIS2_PLACEMENT_3D ( 'NONE', #203, #305, #150 ) ;
#265 = FACE_OUTER_BOUND ( 'NONE', #96, .T. ) ;
#266 = PERSON_AND_ORGANIZATION_ROLE ( 'creator' ) ;
#267 = ORIENTED_EDGE ( 'NONE', *, *, #144, .F. ) ;
#268 = LOCAL_TIME ( 10, 28, 2.000000000000000000, #126 ) ;
#269 = DATE_AND_TIME ( #111, #296 ) ;
#270 = EDGE_LOOP ( 'NONE', ( #298 ) ) ;
#271 = APPROVAL_STATUS ( 'not_yet_approved' ) ;
#272 = EDGE_LOOP ( 'NONE', ( #40 ) ) ;
#273 = PERSON_AND_ORGANIZATION ( #76, #207 ) ;
#274 = ORIENTED_EDGE ( 'NONE', *, *, #168, .F. ) ;
#275 = EDGE_CURVE ( 'NONE', #191, #191, #129, .T. ) ;
#276 = CONICAL_SURFACE ( 'NONE', #83, 13.37000000000000099, 0.7853981633974518317 ) ;
#277 = EDGE_LOOP ( 'NONE', ( #84 ) ) ;
#278 = AXIS2_PLACEMENT_3D ( 'NONE', #209, #286, #30 ) ;
#279 = EDGE_LOOP ( 'NONE', ( #174 ) ) ;
#280 = PLANE ( 'NONE',  #264 ) ;
#281 = EDGE_LOOP ( 'NONE', ( #192 ) ) ;
#282 = LOCAL_TIME ( 10, 28, 2.000000000000000000, #164 ) ;
#283 = FACE_BOUND ( 'NONE', #18, .T. ) ;
#284 = DIRECTION ( 'NONE',  ( 0.000000000000000000, 0.000000000000000000, -1.000000000000000000 ) ) ;
#285 = EDGE_CURVE ( 'NONE', #62, #62, #16, .T. ) ;
#286 = DIRECTION ( 'NONE',  ( 0.000000000000000000, -1.000000000000000000, 0.000000000000000000 ) ) ;
#287 = CONICAL_SURFACE ( 'NONE', #260, 13.36999999999999922, 0.7853981633974533860 ) ;
#288 = DIRECTION ( 'NONE',  ( 0.000000000000000000, 0.000000000000000000, 1.000000000000000000 ) ) ;
#289 = FACE_BOUND ( 'NONE', #300, .T. ) ;
#290 = DIRECTION ( 'NONE',  ( 0.000000000000000000, 0.000000000000000000, 1.000000000000000000 ) ) ;
#291 = PRODUCT_DEFINITION_SHAPE ( 'NONE', 'NONE',  #319 ) ;
#292 = CARTESIAN_POINT ( 'NONE',  ( 0.000000000000000000, 13.02300000000000679, 0.000000000000000000 ) ) ;
#293 = DESIGN_CONTEXT ( 'detailed design', #92, 'design' ) ;
#294 = MECHANICAL_CONTEXT ( 'NONE', #194, 'mechanical' ) ;
#295 = EDGE_LOOP ( 'NONE', ( #274 ) ) ;
#296 = LOCAL_TIME ( 10, 28, 2.000000000000000000, #322 ) ;
#297 = VERTEX_POINT ( 'NONE', #117 ) ;
#298 = ORIENTED_EDGE ( 'NONE', *, *, #275, .T. ) ;
#299 = EDGE_CURVE ( 'NONE', #218, #218, #161, .T. ) ;
#300 = EDGE_LOOP ( 'NONE', ( #109 ) ) ;
#301 = PRODUCT ( '693023', '693023', '', ( #294 ) ) ;
#302 = ORIENTED_EDGE ( 'NONE', *, *, #299, .T. ) ;
#303 = CIRCLE ( 'NONE', #156, 13.36999999999999922 ) ;
#304 = PLANE ( 'NONE',  #26 ) ;
#305 = DIRECTION ( 'NONE',  ( 0.000000000000000000, 1.000000000000000000, 0.000000000000000000 ) ) ;
#306 = DIRECTION ( 'NONE',  ( 0.000000000000000000, 0.000000000000000000, -1.000000000000000000 ) ) ;
#307 = DIRECTION ( 'NONE',  ( 0.000000000000000000, -0.000000000000000000, 1.000000000000000000 ) ) ;
#308 = CIRCLE ( 'NONE', #10, 12.00000000000000178 ) ;
#309 = ADVANCED_FACE ( 'NONE', ( #51, #160 ), #157, .T. ) ;
#310 = FACE_OUTER_BOUND ( 'NONE', #272, .T. ) ;
#311 = DIRECTION ( 'NONE',  ( -0.000000000000000000, -1.000000000000000000, -0.000000000000000000 ) ) ;
#312 = CARTESIAN_POINT ( 'NONE',  ( -12.30492005524072141, 5.417063118088178086, 0.000000000000000000 ) ) ;
#313 = ADVANCED_FACE ( 'NONE', ( #263, #210 ), #236, .T. ) ;
#314 = LOCAL_TIME ( 10, 28, 2.000000000000000000, #326 ) ;
#315 = CARTESIAN_POINT ( 'NONE',  ( 0.000000000000000000, 0.5000000000000004441, 0.000000000000000000 ) ) ;
#316 = DIRECTION ( 'NONE',  ( 0.000000000000000000, 0.000000000000000000, 1.000000000000000000 ) ) ;
#317 = DIRECTION ( 'NONE',  ( -1.000000000000000000, -6.487372759823512427E-17, 0.000000000000000000 ) ) ;
#318 = CARTESIAN_POINT ( 'NONE',  ( -13.36999999999999922, 5.917063118088177198, 0.000000000000000000 ) ) ;
#319 = PRODUCT_DEFINITION ( 'Î´Öª', '', #28, #293 ) ;
#320 = ORIENTED_EDGE ( 'NONE', *, *, #185, .T. ) ;
#321 = VERTEX_POINT ( 'NONE', #61 ) ;
#322 = COORDINATED_UNIVERSAL_TIME_OFFSET ( 8, 0, .AHEAD. ) ;
#323 = EDGE_CURVE ( 'NONE', #220, #220, #103, .T. ) ;
#324 = AXIS2_PLACEMENT_3D ( 'NONE', #155, #79, #317 ) ;
#325 = DIRECTION ( 'NONE',  ( 1.000000000000000000, 0.000000000000000000, 0.000000000000000000 ) ) ;
#326 = COORDINATED_UNIVERSAL_TIME_OFFSET ( 8, 0, .AHEAD. ) ;
#327 = CC_DESIGN_PERSON_AND_ORGANIZATION_ASSIGNMENT ( #19, #45, ( #78 ) ) ;
#328 = DIRECTION ( 'NONE',  ( 0.000000000000000000, 0.000000000000000000, -1.000000000000000000 ) ) ;
#329 = EDGE_LOOP ( 'NONE', ( #257 ) ) ;
#330 = DIRECTION ( 'NONE',  ( 0.000000000000000000, 0.000000000000000000, 1.000000000000000000 ) ) ;
#331 = EDGE_LOOP ( 'NONE', ( #38 ) ) ;
#332 = ADVANCED_FACE ( 'NONE', ( #237 ), #27, .T. ) ;
#333 = CARTESIAN_POINT ( 'NONE',  ( 0.000000000000000000, 13.09459459459461073, 0.000000000000000000 ) ) ;
#334 = AXIS2_PLACEMENT_3D ( 'NONE', #240, #102, #32 ) ;
#335 = VERTEX_POINT ( 'NONE', #193 ) ;
ENDSEC;
END-ISO-10303-21;
