ISO-10303-21;
HEADER;
FILE_DESCRIPTION (( 'STEP AP203' ),
    '1' );
FILE_NAME ('340522.STEP',
    '2019-07-30T07:28:53',
    ( '' ),
    ( '' ),
    'SwSTEP 2.0',
    'SolidWorks 2016',
    '' );
FILE_SCHEMA (( 'CONFIG_CONTROL_DESIGN' ));
ENDSEC;

DATA;
#1 = PRODUCT ( '340522', '340522', '', ( #118 ) ) ;
#2 = CC_DESIGN_DATE_AND_TIME_ASSIGNMENT ( #274, #266, ( #103 ) ) ;
#3 = DATE_AND_TIME ( #264, #218 ) ;
#4 = DATE_TIME_ROLE ( 'classification_date' ) ;
#5 = MECHANICAL_CONTEXT ( 'NONE', #244, 'mechanical' ) ;
#6 = APPROVAL_PERSON_ORGANIZATION ( #236, #84, #273 ) ;
#7 = ORIENTED_EDGE ( 'NONE', *, *, #267, .T. ) ;
#8 = EDGE_CURVE ( 'NONE', #124, #223, #302, .T. ) ;
#9 = VECTOR ( 'NONE', #216, 1000.000000000000000 ) ;
#10 = APPROVAL_STATUS ( 'not_yet_approved' ) ;
#11 = DIRECTION ( 'NONE',  ( -2.891205793294678800E-016, 1.000000000000000000, -0.0000000000000000000 ) ) ;
#12 = SECURITY_CLASSIFICATION ( '', '', #52 ) ;
#13 = COORDINATED_UNIVERSAL_TIME_OFFSET ( 8, 0, .AHEAD. ) ;
#14 = COORDINATED_UNIVERSAL_TIME_OFFSET ( 8, 0, .AHEAD. ) ;
#15 = ORIENTED_EDGE ( 'NONE', *, *, #173, .T. ) ;
#16 = CARTESIAN_POINT ( 'NONE',  ( 18.64837398373983700, 7.520325203252024700, 3.000000000000000000 ) ) ;
#17 = EDGE_CURVE ( 'NONE', #67, #282, #278, .T. ) ;
#18 = COORDINATED_UNIVERSAL_TIME_OFFSET ( 8, 0, .AHEAD. ) ;
#19 = EDGE_LOOP ( 'NONE', ( #230, #167, #24, #228 ) ) ;
#20 = PRODUCT_RELATED_PRODUCT_CATEGORY ( 'detail', '', ( #1 ) ) ;
#21 = DIRECTION ( 'NONE',  ( 0.0000000000000000000, 0.0000000000000000000, 1.000000000000000000 ) ) ;
#22 = COORDINATED_UNIVERSAL_TIME_OFFSET ( 8, 0, .AHEAD. ) ;
#23 = ORGANIZATION ( 'Î´Ö¸¶¨', 'Î´Ö¸¶¨', '' ) ;
#24 = ORIENTED_EDGE ( 'NONE', *, *, #17, .F. ) ;
#25 = APPROVAL_PERSON_ORGANIZATION ( #123, #79, #277 ) ;
#26 = APPROVAL_ROLE ( '' ) ;
#27 = LINE ( 'NONE', #87, #243 ) ;
#28 = EDGE_CURVE ( 'NONE', #249, #223, #41, .T. ) ;
#29 = APPROVAL_DATE_TIME ( #149, #150 ) ;
#30 = CC_DESIGN_PERSON_AND_ORGANIZATION_ASSIGNMENT ( #256, #47, ( #245 ) ) ;
#31 = ORIENTED_EDGE ( 'NONE', *, *, #312, .F. ) ;
#32 = AXIS2_PLACEMENT_3D ( 'NONE', #235, #289, #169 ) ;
#33 = CC_DESIGN_PERSON_AND_ORGANIZATION_ASSIGNMENT ( #242, #207, ( #202 ) ) ;
#34 = CARTESIAN_POINT ( 'NONE',  ( -6.351626016260158100, -28.47967479674797200, 3.000000000000000000 ) ) ;
#35 = ORIENTED_EDGE ( 'NONE', *, *, #77, .F. ) ;
#36 = DIRECTION ( 'NONE',  ( -0.0000000000000000000, 0.0000000000000000000, 1.000000000000000000 ) ) ;
#37 = DESIGN_CONTEXT ( 'detailed design', #200, 'design' ) ;
#38 = DIRECTION ( 'NONE',  ( -1.000000000000000000, -2.891205793294678800E-016, 0.0000000000000000000 ) ) ;
#39 = CARTESIAN_POINT ( 'NONE',  ( -6.351626016260162500, 7.520325203252024700, 0.0000000000000000000 ) ) ;
#40 = CARTESIAN_POINT ( 'NONE',  ( -6.351626016260162500, 7.520325203252024700, 0.0000000000000000000 ) ) ;
#41 = LINE ( 'NONE', #34, #293 ) ;
#42 = DIRECTION ( 'NONE',  ( 1.000000000000000000, 0.0000000000000000000, 0.0000000000000000000 ) ) ;
#43 = EDGE_CURVE ( 'NONE', #238, #249, #259, .T. ) ;
#44 = DIRECTION ( 'NONE',  ( 1.000000000000000000, 0.0000000000000000000, 0.0000000000000000000 ) ) ;
#45 = LINE ( 'NONE', #220, #99 ) ;
#46 = CC_DESIGN_APPROVAL ( #84, ( #119 ) ) ;
#47 = PERSON_AND_ORGANIZATION_ROLE ( 'design_owner' ) ;
#48 = DATE_AND_TIME ( #113, #188 ) ;
#49 = ADVANCED_FACE ( 'NONE', ( #161 ), #261, .F. ) ;
#50 = VECTOR ( 'NONE', #265, 1000.000000000000000 ) ;
#51 = PERSON_AND_ORGANIZATION_ROLE ( 'creator' ) ;
#52 = SECURITY_CLASSIFICATION_LEVEL ( 'unclassified' ) ;
#53 = CC_DESIGN_DATE_AND_TIME_ASSIGNMENT ( #86, #4, ( #202 ) ) ;
#54 = CALENDAR_DATE ( 2019, 30, 7 ) ;
#55 = ORIENTED_EDGE ( 'NONE', *, *, #312, .T. ) ;
#56 = DESIGN_CONTEXT ( 'detailed design', #182, 'design' ) ;
#57 = DATE_AND_TIME ( #276, #152 ) ;
#58 = EDGE_LOOP ( 'NONE', ( #178, #260, #157, #69 ) ) ;
#59 = COORDINATED_UNIVERSAL_TIME_OFFSET ( 8, 0, .AHEAD. ) ;
#60 = FACE_OUTER_BOUND ( 'NONE', #58, .T. ) ;
#61 = CARTESIAN_POINT ( 'NONE',  ( -6.351626016260162500, 7.520325203252024700, 3.000000000000000000 ) ) ;
#62 = CC_DESIGN_PERSON_AND_ORGANIZATION_ASSIGNMENT ( #71, #101, ( #12 ) ) ;
#63 = DIRECTION ( 'NONE',  ( 2.891205793294678800E-016, -1.000000000000000000, 0.0000000000000000000 ) ) ;
#64 = CARTESIAN_POINT ( 'NONE',  ( -6.351626016260162500, 7.520325203252024700, 3.000000000000000000 ) ) ;
#65 = DIRECTION ( 'NONE',  ( 0.0000000000000000000, 0.0000000000000000000, 1.000000000000000000 ) ) ;
#66 = COORDINATED_UNIVERSAL_TIME_OFFSET ( 8, 0, .AHEAD. ) ;
#67 = VERTEX_POINT ( 'NONE', #109 ) ;
#68 = CC_DESIGN_PERSON_AND_ORGANIZATION_ASSIGNMENT ( #164, #151, ( #100 ) ) ;
#69 = ORIENTED_EDGE ( 'NONE', *, *, #77, .T. ) ;
#70 = DIRECTION ( 'NONE',  ( -0.0000000000000000000, -0.0000000000000000000, -1.000000000000000000 ) ) ;
#71 = PERSON_AND_ORGANIZATION ( #148, #23 ) ;
#72 = APPROVAL_STATUS ( 'not_yet_approved' ) ;
#73 = APPLICATION_PROTOCOL_DEFINITION ( 'international standard', 'config_control_design', 1994, #244 ) ;
#74 = APPROVAL_ROLE ( '' ) ;
#75 = COORDINATED_UNIVERSAL_TIME_OFFSET ( 8, 0, .AHEAD. ) ;
#76 = VECTOR ( 'NONE', #237, 1000.000000000000000 ) ;
#77 = EDGE_CURVE ( 'NONE', #238, #124, #185, .T. ) ;
#78 = ADVANCED_FACE ( 'NONE', ( #95 ), #217, .F. ) ;
#79 = APPROVAL ( #297, 'Î´Ö¸¶¨' ) ;
#80 = CALENDAR_DATE ( 2019, 30, 7 ) ;
#81 = CALENDAR_DATE ( 2019, 30, 7 ) ;
#82 = SHAPE_DEFINITION_REPRESENTATION ( #128, #279 ) ;
#83 = ORIENTED_EDGE ( 'NONE', *, *, #173, .F. ) ;
#84 = APPROVAL ( #72, 'Î´Ö¸¶¨' ) ;
#85 = PERSON_AND_ORGANIZATION_ROLE ( 'creator' ) ;
#86 = DATE_AND_TIME ( #80, #98 ) ;
#87 = CARTESIAN_POINT ( 'NONE',  ( -6.351626016260158100, -28.47967479674797200, 3.000000000000000000 ) ) ;
#88 = PERSON_AND_ORGANIZATION ( #148, #23 ) ;
#89 = CARTESIAN_POINT ( 'NONE',  ( 0.0000000000000000000, 0.0000000000000000000, 0.0000000000000000000 ) ) ;
#90 = CARTESIAN_POINT ( 'NONE',  ( -6.351626016260162500, 7.520325203252024700, 0.0000000000000000000 ) ) ;
#91 = CC_DESIGN_SECURITY_CLASSIFICATION ( #202, ( #100 ) ) ;
#92 = LOCAL_TIME ( 15, 28, 53.00000000000000000, #22 ) ;
#93 = CALENDAR_DATE ( 2019, 30, 7 ) ;
#94 = CARTESIAN_POINT ( 'NONE',  ( 0.0000000000000000000, 0.0000000000000000000, 0.0000000000000000000 ) ) ;
#95 = FACE_OUTER_BOUND ( 'NONE', #311, .T. ) ;
#96 = DIRECTION ( 'NONE',  ( 0.0000000000000000000, -0.0000000000000000000, -1.000000000000000000 ) ) ;
#97 = CARTESIAN_POINT ( 'NONE',  ( 18.64837398373983700, 7.520325203252024700, 3.000000000000000000 ) ) ;
#98 = LOCAL_TIME ( 15, 28, 53.00000000000000000, #13 ) ;
#99 = VECTOR ( 'NONE', #70, 1000.000000000000000 ) ;
#100 = PRODUCT_DEFINITION_FORMATION_WITH_SPECIFIED_SOURCE ( 'ÈÎºÎ', '', #245, .NOT_KNOWN. ) ;
#101 = PERSON_AND_ORGANIZATION_ROLE ( 'classification_officer' ) ;
#102 = CLOSED_SHELL ( 'NONE', ( #183, #49, #208, #300, #104, #78 ) ) ;
#103 = PRODUCT_DEFINITION ( 'Î´Öª', '', #231, #37 ) ;
#104 = ADVANCED_FACE ( 'NONE', ( #306 ), #141, .T. ) ;
#105 = CC_DESIGN_PERSON_AND_ORGANIZATION_ASSIGNMENT ( #88, #246, ( #119 ) ) ;
#106 = ORIENTED_EDGE ( 'NONE', *, *, #17, .T. ) ;
#107 = VECTOR ( 'NONE', #11, 1000.000000000000000 ) ;
#108 = VECTOR ( 'NONE', #287, 1000.000000000000000 ) ;
#109 = CARTESIAN_POINT ( 'NONE',  ( 18.64837398373984800, -28.47967479674797200, 3.000000000000000000 ) ) ;
#110 = CC_DESIGN_APPROVAL ( #150, ( #100 ) ) ;
#111 = CARTESIAN_POINT ( 'NONE',  ( -6.351626016260162500, 7.520325203252024700, 3.000000000000000000 ) ) ;
#112 = DIRECTION ( 'NONE',  ( -0.0000000000000000000, -0.0000000000000000000, -1.000000000000000000 ) ) ;
#113 = CALENDAR_DATE ( 2019, 30, 7 ) ;
#114 = LINE ( 'NONE', #140, #108 ) ;
#115 = DIRECTION ( 'NONE',  ( -0.0000000000000000000, 0.0000000000000000000, 1.000000000000000000 ) ) ;
#116 =( NAMED_UNIT ( * ) SI_UNIT ( $, .STERADIAN. ) SOLID_ANGLE_UNIT ( ) );
#117 = EDGE_CURVE ( 'NONE', #67, #270, #201, .T. ) ;
#118 = MECHANICAL_CONTEXT ( 'NONE', #241, 'mechanical' ) ;
#119 = PRODUCT_DEFINITION ( 'Î´Öª', '', #100, #56 ) ;
#120 =( LENGTH_UNIT ( ) NAMED_UNIT ( * ) SI_UNIT ( .MILLI., .METRE. ) );
#121 = VECTOR ( 'NONE', #263, 1000.000000000000000 ) ;
#122 = APPROVAL_STATUS ( 'not_yet_approved' ) ;
#123 = PERSON_AND_ORGANIZATION ( #148, #23 ) ;
#124 = VERTEX_POINT ( 'NONE', #40 ) ;
#125 = APPROVAL_ROLE ( '' ) ;
#126 = PRODUCT_RELATED_PRODUCT_CATEGORY ( 'detail', '', ( #245 ) ) ;
#127 = SECURITY_CLASSIFICATION_LEVEL ( 'unclassified' ) ;
#128 = PRODUCT_DEFINITION_SHAPE ( 'NONE', 'NONE',  #119 ) ;
#129 = CALENDAR_DATE ( 2019, 30, 7 ) ;
#130 = VERTEX_POINT ( 'NONE', #170 ) ;
#131 = CC_DESIGN_DATE_AND_TIME_ASSIGNMENT ( #3, #203, ( #12 ) ) ;
#132 = APPROVAL_PERSON_ORGANIZATION ( #309, #150, #26 ) ;
#133 = PERSON_AND_ORGANIZATION ( #148, #23 ) ;
#134 = APPROVAL_DATE_TIME ( #225, #158 ) ;
#135 = ORIENTED_EDGE ( 'NONE', *, *, #283, .T. ) ;
#136 = CC_DESIGN_PERSON_AND_ORGANIZATION_ASSIGNMENT ( #268, #153, ( #231 ) ) ;
#137 = PLANE ( 'NONE',  #199 ) ;
#138 = PERSON_AND_ORGANIZATION ( #148, #23 ) ;
#139 = APPROVAL_PERSON_ORGANIZATION ( #298, #158, #214 ) ;
#140 = CARTESIAN_POINT ( 'NONE',  ( 18.64837398373983700, 7.520325203252024700, 0.0000000000000000000 ) ) ;
#141 = PLANE ( 'NONE',  #275 ) ;
#142 = AXIS2_PLACEMENT_3D ( 'NONE', #16, #38, #63 ) ;
#143 = DIRECTION ( 'NONE',  ( 1.000000000000000000, 0.0000000000000000000, 0.0000000000000000000 ) ) ;
#144 = APPLICATION_PROTOCOL_DEFINITION ( 'international standard', 'config_control_design', 1994, #241 ) ;
#145 = CALENDAR_DATE ( 2019, 30, 7 ) ;
#146 = LINE ( 'NONE', #196, #9 ) ;
#147 = PERSON_AND_ORGANIZATION_ROLE ( 'design_owner' ) ;
#148 = PERSON ( 'Î´Ö¸¶¨', 'Î´Ö¸¶¨', 'Î´Ö¸¶¨', ('Î´Ö¸¶¨'), ('Î´Ö¸¶¨'), ('Î´Ö¸¶¨') ) ;
#149 = DATE_AND_TIME ( #54, #155 ) ;
#150 = APPROVAL ( #180, 'Î´Ö¸¶¨' ) ;
#151 = PERSON_AND_ORGANIZATION_ROLE ( 'design_supplier' ) ;
#152 = LOCAL_TIME ( 15, 28, 53.00000000000000000, #66 ) ;
#153 = PERSON_AND_ORGANIZATION_ROLE ( 'creator' ) ;
#154 = CC_DESIGN_PERSON_AND_ORGANIZATION_ASSIGNMENT ( #204, #205, ( #231 ) ) ;
#155 = LOCAL_TIME ( 15, 28, 53.00000000000000000, #159 ) ;
#156 = ORIENTED_EDGE ( 'NONE', *, *, #117, .F. ) ;
#157 = ORIENTED_EDGE ( 'NONE', *, *, #43, .F. ) ;
#158 = APPROVAL ( #10, 'Î´Ö¸¶¨' ) ;
#159 = COORDINATED_UNIVERSAL_TIME_OFFSET ( 8, 0, .AHEAD. ) ;
#160 = LOCAL_TIME ( 15, 28, 53.00000000000000000, #14 ) ;
#161 = FACE_OUTER_BOUND ( 'NONE', #189, .T. ) ;
#162 = MANIFOLD_SOLID_BREP ( 'Í¹Ì¨-À­Éì1', #102 ) ;
#163 = DIRECTION ( 'NONE',  ( -0.0000000000000000000, -0.0000000000000000000, -1.000000000000000000 ) ) ;
#164 = PERSON_AND_ORGANIZATION ( #148, #23 ) ;
#165 = CARTESIAN_POINT ( 'NONE',  ( 0.0000000000000000000, 0.0000000000000000000, 3.000000000000000000 ) ) ;
#166 = FACE_OUTER_BOUND ( 'NONE', #253, .T. ) ;
#167 = ORIENTED_EDGE ( 'NONE', *, *, #267, .F. ) ;
#168 = CC_DESIGN_APPROVAL ( #255, ( #12 ) ) ;
#169 = DIRECTION ( 'NONE',  ( 0.0000000000000000000, -0.0000000000000000000, 1.000000000000000000 ) ) ;
#170 = CARTESIAN_POINT ( 'NONE',  ( 18.64837398373983700, 7.520325203252024700, 0.0000000000000000000 ) ) ;
#171 = LOCAL_TIME ( 15, 28, 53.00000000000000000, #280 ) ;
#172 = VECTOR ( 'NONE', #232, 1000.000000000000000 ) ;
#173 = EDGE_CURVE ( 'NONE', #249, #67, #27, .T. ) ;
#174 = CARTESIAN_POINT ( 'NONE',  ( -6.351626016260158100, -28.47967479674797200, 0.0000000000000000000 ) ) ;
#175 = AXIS2_PLACEMENT_3D ( 'NONE', #89, #115, #193 ) ;
#176 = CARTESIAN_POINT ( 'NONE',  ( 0.0000000000000000000, 0.0000000000000000000, 0.0000000000000000000 ) ) ;
#177 = CC_DESIGN_DATE_AND_TIME_ASSIGNMENT ( #48, #248, ( #119 ) ) ;
#178 = ORIENTED_EDGE ( 'NONE', *, *, #8, .T. ) ;
#179 = APPROVAL_DATE_TIME ( #247, #84 ) ;
#180 = APPROVAL_STATUS ( 'not_yet_approved' ) ;
#181 = ORIENTED_EDGE ( 'NONE', *, *, #43, .T. ) ;
#182 = APPLICATION_CONTEXT ( 'configuration controlled 3d designs of mechanical parts and assemblies' ) ;
#183 = ADVANCED_FACE ( 'NONE', ( #60 ), #137, .F. ) ;
#184 = DATE_AND_TIME ( #187, #92 ) ;
#185 = LINE ( 'NONE', #307, #299 ) ;
#186 = CC_DESIGN_PERSON_AND_ORGANIZATION_ASSIGNMENT ( #138, #51, ( #100 ) ) ;
#187 = CALENDAR_DATE ( 2019, 30, 7 ) ;
#188 = LOCAL_TIME ( 15, 28, 53.00000000000000000, #75 ) ;
#189 = EDGE_LOOP ( 'NONE', ( #55, #156, #83, #315 ) ) ;
#190 = DATE_AND_TIME ( #93, #211 ) ;
#191 = ORIENTED_EDGE ( 'NONE', *, *, #283, .F. ) ;
#192 = APPROVAL ( #122, 'Î´Ö¸¶¨' ) ;
#193 = DIRECTION ( 'NONE',  ( 1.000000000000000000, 0.0000000000000000000, 0.0000000000000000000 ) ) ;
#194 = UNCERTAINTY_MEASURE_WITH_UNIT (LENGTH_MEASURE( 1.000000000000000100E-005 ), #120, 'distance_accuracy_value', 'NONE');
#195 = DIRECTION ( 'NONE',  ( 1.000000000000000000, 1.204669080539449300E-016, -0.0000000000000000000 ) ) ;
#196 = CARTESIAN_POINT ( 'NONE',  ( -6.351626016260162500, 7.520325203252024700, 3.000000000000000000 ) ) ;
#197 = APPROVAL_PERSON_ORGANIZATION ( #133, #255, #74 ) ;
#198 = DIRECTION ( 'NONE',  ( -1.204669080539449300E-016, 1.000000000000000000, 0.0000000000000000000 ) ) ;
#199 = AXIS2_PLACEMENT_3D ( 'NONE', #64, #195, #198 ) ;
#200 = APPLICATION_CONTEXT ( 'configuration controlled 3d designs of mechanical parts and assemblies' ) ;
#201 = LINE ( 'NONE', #215, #121 ) ;
#202 = SECURITY_CLASSIFICATION ( '', '', #127 ) ;
#203 = DATE_TIME_ROLE ( 'classification_date' ) ;
#204 = PERSON_AND_ORGANIZATION ( #148, #23 ) ;
#205 = PERSON_AND_ORGANIZATION_ROLE ( 'design_supplier' ) ;
#206 = EDGE_CURVE ( 'NONE', #270, #130, #114, .T. ) ;
#207 = PERSON_AND_ORGANIZATION_ROLE ( 'classification_officer' ) ;
#208 = ADVANCED_FACE ( 'NONE', ( #219 ), #262, .F. ) ;
#209 = ORIENTED_EDGE ( 'NONE', *, *, #251, .T. ) ;
#210 = CC_DESIGN_APPROVAL ( #192, ( #202 ) ) ;
#211 = LOCAL_TIME ( 15, 28, 53.00000000000000000, #59 ) ;
#212 = LOCAL_TIME ( 15, 28, 53.00000000000000000, #18 ) ;
#213 = LINE ( 'NONE', #174, #286 ) ;
#214 = APPROVAL_ROLE ( '' ) ;
#215 = CARTESIAN_POINT ( 'NONE',  ( 18.64837398373984800, -28.47967479674797200, 3.000000000000000000 ) ) ;
#216 = DIRECTION ( 'NONE',  ( -1.000000000000000000, -0.0000000000000000000, -0.0000000000000000000 ) ) ;
#217 = PLANE ( 'NONE',  #175 ) ;
#218 = LOCAL_TIME ( 15, 28, 53.00000000000000000, #314 ) ;
#219 = FACE_OUTER_BOUND ( 'NONE', #19, .T. ) ;
#220 = CARTESIAN_POINT ( 'NONE',  ( 18.64837398373983700, 7.520325203252024700, 3.000000000000000000 ) ) ;
#221 =( GEOMETRIC_REPRESENTATION_CONTEXT ( 3 ) GLOBAL_UNCERTAINTY_ASSIGNED_CONTEXT ( ( #194 ) ) GLOBAL_UNIT_ASSIGNED_CONTEXT ( ( #120, #269, #116 ) ) REPRESENTATION_CONTEXT ( 'NONE', 'WORKASPACE' ) );
#222 = DIRECTION ( 'NONE',  ( 0.0000000000000000000, -1.000000000000000000, 0.0000000000000000000 ) ) ;
#223 = VERTEX_POINT ( 'NONE', #308 ) ;
#224 = AXIS2_PLACEMENT_3D ( 'NONE', #313, #222, #96 ) ;
#225 = DATE_AND_TIME ( #81, #171 ) ;
#226 = LINE ( 'NONE', #90, #76 ) ;
#227 = APPROVAL_STATUS ( 'not_yet_approved' ) ;
#228 = ORIENTED_EDGE ( 'NONE', *, *, #117, .T. ) ;
#229 = EDGE_LOOP ( 'NONE', ( #181, #15, #106, #209 ) ) ;
#230 = ORIENTED_EDGE ( 'NONE', *, *, #206, .T. ) ;
#231 = PRODUCT_DEFINITION_FORMATION_WITH_SPECIFIED_SOURCE ( 'ÈÎºÎ', '', #1, .NOT_KNOWN. ) ;
#232 = DIRECTION ( 'NONE',  ( 1.204669080539449300E-016, -1.000000000000000000, 0.0000000000000000000 ) ) ;
#233 = ORIENTED_EDGE ( 'NONE', *, *, #206, .F. ) ;
#234 = DIRECTION ( 'NONE',  ( 1.000000000000000000, 0.0000000000000000000, 0.0000000000000000000 ) ) ;
#235 = CARTESIAN_POINT ( 'NONE',  ( -6.351626016260158100, -28.47967479674797200, 3.000000000000000000 ) ) ;
#236 = PERSON_AND_ORGANIZATION ( #148, #23 ) ;
#237 = DIRECTION ( 'NONE',  ( -1.000000000000000000, -0.0000000000000000000, -0.0000000000000000000 ) ) ;
#238 = VERTEX_POINT ( 'NONE', #111 ) ;
#239 = CC_DESIGN_APPROVAL ( #158, ( #103 ) ) ;
#240 = CARTESIAN_POINT ( 'NONE',  ( 18.64837398373984800, -28.47967479674797200, 0.0000000000000000000 ) ) ;
#241 = APPLICATION_CONTEXT ( 'configuration controlled 3d designs of mechanical parts and assemblies' ) ;
#242 = PERSON_AND_ORGANIZATION ( #148, #23 ) ;
#243 = VECTOR ( 'NONE', #234, 1000.000000000000000 ) ;
#244 = APPLICATION_CONTEXT ( 'configuration controlled 3d designs of mechanical parts and assemblies' ) ;
#245 = PRODUCT ( '340522', '340522', '', ( #5 ) ) ;
#246 = PERSON_AND_ORGANIZATION_ROLE ( 'creator' ) ;
#247 = DATE_AND_TIME ( #145, #212 ) ;
#248 = DATE_TIME_ROLE ( 'creation_date' ) ;
#249 = VERTEX_POINT ( 'NONE', #288 ) ;
#250 = APPLICATION_PROTOCOL_DEFINITION ( 'international standard', 'config_control_design', 1994, #182 ) ;
#251 = EDGE_CURVE ( 'NONE', #282, #238, #146, .T. ) ;
#252 = AXIS2_PLACEMENT_3D ( 'NONE', #176, #65, #44 ) ;
#253 = EDGE_LOOP ( 'NONE', ( #135, #35, #296, #7 ) ) ;
#254 = PRODUCT_DEFINITION_SHAPE ( 'NONE', 'NONE',  #103 ) ;
#255 = APPROVAL ( #227, 'Î´Ö¸¶¨' ) ;
#256 = PERSON_AND_ORGANIZATION ( #148, #23 ) ;
#257 = AXIS2_PLACEMENT_3D ( 'NONE', #94, #21, #294 ) ;
#258 = PERSON_AND_ORGANIZATION ( #148, #23 ) ;
#259 = LINE ( 'NONE', #61, #172 ) ;
#260 = ORIENTED_EDGE ( 'NONE', *, *, #28, .F. ) ;
#261 = PLANE ( 'NONE',  #32 ) ;
#262 = PLANE ( 'NONE',  #142 ) ;
#263 = DIRECTION ( 'NONE',  ( -0.0000000000000000000, -0.0000000000000000000, -1.000000000000000000 ) ) ;
#264 = CALENDAR_DATE ( 2019, 30, 7 ) ;
#265 = DIRECTION ( 'NONE',  ( 1.204669080539449300E-016, -1.000000000000000000, 0.0000000000000000000 ) ) ;
#266 = DATE_TIME_ROLE ( 'creation_date' ) ;
#267 = EDGE_CURVE ( 'NONE', #282, #130, #45, .T. ) ;
#268 = PERSON_AND_ORGANIZATION ( #148, #23 ) ;
#269 =( NAMED_UNIT ( * ) PLANE_ANGLE_UNIT ( ) SI_UNIT ( $, .RADIAN. ) );
#270 = VERTEX_POINT ( 'NONE', #240 ) ;
#271 = APPLICATION_PROTOCOL_DEFINITION ( 'international standard', 'config_control_design', 1994, #200 ) ;
#272 = CC_DESIGN_APPROVAL ( #79, ( #231 ) ) ;
#273 = APPROVAL_ROLE ( '' ) ;
#274 = DATE_AND_TIME ( #129, #160 ) ;
#275 = AXIS2_PLACEMENT_3D ( 'NONE', #165, #36, #143 ) ;
#276 = CALENDAR_DATE ( 2019, 30, 7 ) ;
#277 = APPROVAL_ROLE ( '' ) ;
#278 = LINE ( 'NONE', #290, #107 ) ;
#279 = ADVANCED_BREP_SHAPE_REPRESENTATION ( '340522', ( #162, #257 ), #221 ) ;
#280 = COORDINATED_UNIVERSAL_TIME_OFFSET ( 8, 0, .AHEAD. ) ;
#281 = APPROVAL_DATE_TIME ( #190, #79 ) ;
#282 = VERTEX_POINT ( 'NONE', #97 ) ;
#283 = EDGE_CURVE ( 'NONE', #130, #124, #226, .T. ) ;
#284 = CC_DESIGN_SECURITY_CLASSIFICATION ( #12, ( #231 ) ) ;
#285 = APPROVAL_DATE_TIME ( #184, #192 ) ;
#286 = VECTOR ( 'NONE', #42, 1000.000000000000000 ) ;
#287 = DIRECTION ( 'NONE',  ( -2.891205793294678800E-016, 1.000000000000000000, -0.0000000000000000000 ) ) ;
#288 = CARTESIAN_POINT ( 'NONE',  ( -6.351626016260158100, -28.47967479674797200, 3.000000000000000000 ) ) ;
#289 = DIRECTION ( 'NONE',  ( 0.0000000000000000000, 1.000000000000000000, 0.0000000000000000000 ) ) ;
#290 = CARTESIAN_POINT ( 'NONE',  ( 18.64837398373983700, 7.520325203252024700, 3.000000000000000000 ) ) ;
#291 = PERSON_AND_ORGANIZATION ( #148, #23 ) ;
#292 = CC_DESIGN_PERSON_AND_ORGANIZATION_ASSIGNMENT ( #291, #147, ( #1 ) ) ;
#293 = VECTOR ( 'NONE', #112, 1000.000000000000000 ) ;
#294 = DIRECTION ( 'NONE',  ( 1.000000000000000000, 0.0000000000000000000, 0.0000000000000000000 ) ) ;
#295 = PLANE ( 'NONE',  #224 ) ;
#296 = ORIENTED_EDGE ( 'NONE', *, *, #251, .F. ) ;
#297 = APPROVAL_STATUS ( 'not_yet_approved' ) ;
#298 = PERSON_AND_ORGANIZATION ( #148, #23 ) ;
#299 = VECTOR ( 'NONE', #163, 1000.000000000000000 ) ;
#300 = ADVANCED_FACE ( 'NONE', ( #166 ), #295, .F. ) ;
#301 = PERSON_AND_ORGANIZATION ( #148, #23 ) ;
#302 = LINE ( 'NONE', #39, #50 ) ;
#303 = CC_DESIGN_PERSON_AND_ORGANIZATION_ASSIGNMENT ( #258, #85, ( #103 ) ) ;
#304 = ORIENTED_EDGE ( 'NONE', *, *, #8, .F. ) ;
#305 = APPROVAL_PERSON_ORGANIZATION ( #301, #192, #125 ) ;
#306 = FACE_OUTER_BOUND ( 'NONE', #229, .T. ) ;
#307 = CARTESIAN_POINT ( 'NONE',  ( -6.351626016260162500, 7.520325203252024700, 3.000000000000000000 ) ) ;
#308 = CARTESIAN_POINT ( 'NONE',  ( -6.351626016260158100, -28.47967479674797200, 0.0000000000000000000 ) ) ;
#309 = PERSON_AND_ORGANIZATION ( #148, #23 ) ;
#310 = APPROVAL_DATE_TIME ( #57, #255 ) ;
#311 = EDGE_LOOP ( 'NONE', ( #304, #191, #233, #31 ) ) ;
#312 = EDGE_CURVE ( 'NONE', #223, #270, #213, .T. ) ;
#313 = CARTESIAN_POINT ( 'NONE',  ( -6.351626016260162500, 7.520325203252024700, 3.000000000000000000 ) ) ;
#314 = COORDINATED_UNIVERSAL_TIME_OFFSET ( 8, 0, .AHEAD. ) ;
#315 = ORIENTED_EDGE ( 'NONE', *, *, #28, .T. ) ;
ENDSEC;
END-ISO-10303-21;
