ISO-10303-21;
HEADER;
FILE_DESCRIPTION (( 'STEP AP214' ),
    '1' );
FILE_NAME ('GNIF-220-3430-D10.STEP',
    '2024-07-19T14:40:17',
    ( '' ),
    ( '' ),
    'SwSTEP 2.0',
    'SolidWorks 2022',
    '' );
FILE_SCHEMA (( 'AUTOMOTIVE_DESIGN' ));
ENDSEC;

DATA;
#1 = FILL_AREA_STYLE_COLOUR ( '', #207 ) ;
#2 = ORIENTED_EDGE ( 'NONE', *, *, #163, .T. ) ;
#3 = CONICAL_SURFACE ( 'NONE', #59, 4.800000000000002487, 0.7853981633974461696 ) ;
#4 = DIRECTION ( 'NONE',  ( 0.000000000000000000, 0.000000000000000000, 1.000000000000000000 ) ) ;
#5 = EDGE_CURVE ( 'NONE', #173, #50, #229, .T. ) ;
#6 = APPLICATION_CONTEXT ( 'automotive_design' ) ;
#7 = CARTESIAN_POINT ( 'NONE',  ( 0.000000000000000000, 0.000000000000000000, 0.000000000000000000 ) ) ;
#8 = ADVANCED_FACE ( 'NONE', ( #94 ), #3, .T. ) ;
#9 = ORIENTED_EDGE ( 'NONE', *, *, #206, .F. ) ;
#10 = DIRECTION ( 'NONE',  ( 0.000000000000000000, 0.000000000000000000, 1.000000000000000000 ) ) ;
#11 = DIRECTION ( 'NONE',  ( 1.000000000000000000, 0.000000000000000000, 0.000000000000000000 ) ) ;
#12 = DIRECTION ( 'NONE',  ( 1.000000000000000000, 0.000000000000000000, -0.000000000000000000 ) ) ;
#13 = EDGE_CURVE ( 'NONE', #217, #50, #28, .T. ) ;
#14 = STYLED_ITEM ( 'NONE', ( #213 ), #70 ) ;
#15 = ORIENTED_EDGE ( 'NONE', *, *, #128, .F. ) ;
#16 = ADVANCED_FACE ( 'NONE', ( #53 ), #200, .T. ) ;
#17 = VECTOR ( 'NONE', #205, 1000.000000000000000 ) ;
#18 = ORIENTED_EDGE ( 'NONE', *, *, #236, .T. ) ;
#19 = CARTESIAN_POINT ( 'NONE',  ( 0.000000000000000000, 0.000000000000000000, 0.000000000000000000 ) ) ;
#20 = CARTESIAN_POINT ( 'NONE',  ( 0.000000000000000000, 0.000000000000000000, 0.000000000000000000 ) ) ;
#21 = AXIS2_PLACEMENT_3D ( 'NONE', #7, #157, #230 ) ;
#22 = LINE ( 'NONE', #118, #235 ) ;
#23 = DIRECTION ( 'NONE',  ( 1.000000000000000000, 0.000000000000000000, 0.000000000000000000 ) ) ;
#24 = AXIS2_PLACEMENT_3D ( 'NONE', #191, #45, #87 ) ;
#25 = ORIENTED_EDGE ( 'NONE', *, *, #107, .F. ) ;
#26 = DIRECTION ( 'NONE',  ( -1.000000000000000000, 0.000000000000000000, 0.000000000000000000 ) ) ;
#27 = APPLICATION_PROTOCOL_DEFINITION ( 'draft international standard', 'automotive_design', 1998, #210 ) ;
#28 = CIRCLE ( 'NONE', #63, 5.000000000000000000 ) ;
#29 = UNCERTAINTY_MEASURE_WITH_UNIT (LENGTH_MEASURE( 1.000000000000000082E-05 ), #121, 'distance_accuracy_value', 'NONE');
#30 = CARTESIAN_POINT ( 'NONE',  ( 0.000000000000000000, 0.000000000000000000, 0.1999999999999996503 ) ) ;
#31 = CARTESIAN_POINT ( 'NONE',  ( 0.000000000000000000, 0.000000000000000000, 1.000000000000000000 ) ) ;
#32 = ADVANCED_FACE ( 'NONE', ( #215 ), #164, .T. ) ;
#33 = DIRECTION ( 'NONE',  ( 1.000000000000000000, 0.000000000000000000, 0.000000000000000000 ) ) ;
#34 = STYLED_ITEM ( 'NONE', ( #96 ), #135 ) ;
#35 = CARTESIAN_POINT ( 'NONE',  ( 0.000000000000000000, 0.000000000000000000, 0.8000000000000012657 ) ) ;
#36 = PRESENTATION_LAYER_ASSIGNMENT (  '', '', ( #34 ) ) ;
#37 = ORIENTED_EDGE ( 'NONE', *, *, #201, .F. ) ;
#38 = CARTESIAN_POINT ( 'NONE',  ( -4.800000000000002487, 0.000000000000000000, 1.000000000000000000 ) ) ;
#39 = LINE ( 'NONE', #61, #17 ) ;
#40 = AXIS2_PLACEMENT_3D ( 'NONE', #88, #99, #23 ) ;
#41 = CARTESIAN_POINT ( 'NONE',  ( 4.800000000000002487, 6.000769315822031726E-16, 1.000000000000000000 ) ) ;
#42 = ADVANCED_FACE ( 'NONE', ( #146 ), #216, .T. ) ;
#43 = CIRCLE ( 'NONE', #142, 5.000000000000000000 ) ;
#44 = CARTESIAN_POINT ( 'NONE',  ( 0.000000000000000000, 0.000000000000000000, 0.000000000000000000 ) ) ;
#45 = DIRECTION ( 'NONE',  ( -0.000000000000000000, -0.000000000000000000, 1.000000000000000000 ) ) ;
#46 = FILL_AREA_STYLE ('',( #64 ) ) ;
#47 = PRODUCT_CONTEXT ( 'NONE', #210, 'mechanical' ) ;
#48 = AXIS2_PLACEMENT_3D ( 'NONE', #57, #238, #223 ) ;
#49 = ORIENTED_EDGE ( 'NONE', *, *, #93, .F. ) ;
#50 = VERTEX_POINT ( 'NONE', #158 ) ;
#51 = ADVANCED_FACE ( 'NONE', ( #141 ), #197, .T. ) ;
#52 = AXIS2_PLACEMENT_3D ( 'NONE', #113, #54, #75 ) ;
#53 = FACE_OUTER_BOUND ( 'NONE', #212, .T. ) ;
#54 = DIRECTION ( 'NONE',  ( -0.000000000000000000, -0.000000000000000000, -1.000000000000000000 ) ) ;
#55 = AXIS2_PLACEMENT_3D ( 'NONE', #44, #10, #124 ) ;
#56 = FACE_OUTER_BOUND ( 'NONE', #161, .T. ) ;
#57 = CARTESIAN_POINT ( 'NONE',  ( 0.000000000000000000, 0.000000000000000000, 1.000000000000000000 ) ) ;
#58 = EDGE_CURVE ( 'NONE', #143, #100, #193, .T. ) ;
#59 = AXIS2_PLACEMENT_3D ( 'NONE', #140, #126, #108 ) ;
#60 = EDGE_LOOP ( 'NONE', ( #187, #120, #110, #15 ) ) ;
#61 = CARTESIAN_POINT ( 'NONE',  ( 5.000000000000000000, 6.123233995736766282E-16, 1.000000000000000000 ) ) ;
#62 = EDGE_LOOP ( 'NONE', ( #237, #233, #73, #203 ) ) ;
#63 = AXIS2_PLACEMENT_3D ( 'NONE', #35, #145, #33 ) ;
#64 = FILL_AREA_STYLE_COLOUR ( '', #122 ) ;
#65 =( NAMED_UNIT ( * ) SI_UNIT ( $, .STERADIAN. ) SOLID_ANGLE_UNIT ( ) );
#66 = DIRECTION ( 'NONE',  ( -1.000000000000000000, 0.000000000000000000, 0.000000000000000000 ) ) ;
#67 = ORIENTED_EDGE ( 'NONE', *, *, #58, .F. ) ;
#68 = CIRCLE ( 'NONE', #21, 4.799999999999999822 ) ;
#69 = AXIS2_PLACEMENT_3D ( 'NONE', #19, #186, #77 ) ;
#70 = ADVANCED_BREP_SHAPE_REPRESENTATION ( 'GNIF-220-3430-D10', ( #135, #55 ), #189 ) ;
#71 = PRODUCT_DEFINITION_CONTEXT ( 'detailed design', #6, 'design' ) ;
#72 = ORIENTED_EDGE ( 'NONE', *, *, #5, .F. ) ;
#73 = ORIENTED_EDGE ( 'NONE', *, *, #104, .F. ) ;
#74 = AXIS2_PLACEMENT_3D ( 'NONE', #165, #231, #66 ) ;
#75 = DIRECTION ( 'NONE',  ( -1.000000000000000000, 0.000000000000000000, 0.000000000000000000 ) ) ;
#76 = EDGE_CURVE ( 'NONE', #179, #100, #78, .T. ) ;
#77 = DIRECTION ( 'NONE',  ( 1.000000000000000000, 0.000000000000000000, 0.000000000000000000 ) ) ;
#78 = LINE ( 'NONE', #95, #155 ) ;
#79 = LINE ( 'NONE', #170, #181 ) ;
#80 = DIRECTION ( 'NONE',  ( -0.000000000000000000, -0.000000000000000000, -1.000000000000000000 ) ) ;
#81 = ORIENTED_EDGE ( 'NONE', *, *, #76, .T. ) ;
#82 = CARTESIAN_POINT ( 'NONE',  ( -4.799999999999999822, 6.000769315822029754E-16, 0.000000000000000000 ) ) ;
#83 = ORIENTED_EDGE ( 'NONE', *, *, #58, .T. ) ;
#84 =( GEOMETRIC_REPRESENTATION_CONTEXT ( 3 ) GLOBAL_UNCERTAINTY_ASSIGNED_CONTEXT ( ( #192 ) ) GLOBAL_UNIT_ASSIGNED_CONTEXT ( ( #221, #182, #204 ) ) REPRESENTATION_CONTEXT ( 'NONE', 'WORKASPACE' ) );
#85 = EDGE_LOOP ( 'NONE', ( #162, #114 ) ) ;
#86 = FACE_OUTER_BOUND ( 'NONE', #62, .T. ) ;
#87 = DIRECTION ( 'NONE',  ( 1.000000000000000000, 0.000000000000000000, 0.000000000000000000 ) ) ;
#88 = CARTESIAN_POINT ( 'NONE',  ( 0.000000000000000000, 0.000000000000000000, 0.1999999999999996503 ) ) ;
#89 = AXIS2_PLACEMENT_3D ( 'NONE', #30, #177, #11 ) ;
#90 = PRODUCT_DEFINITION_FORMATION_WITH_SPECIFIED_SOURCE ( 'ÈÎºÎ', '', #166, .NOT_KNOWN. ) ;
#91 = EDGE_LOOP ( 'NONE', ( #234, #125, #138, #190 ) ) ;
#92 = AXIS2_PLACEMENT_3D ( 'NONE', #239, #148, #172 ) ;
#93 = EDGE_CURVE ( 'NONE', #136, #173, #97, .T. ) ;
#94 = FACE_OUTER_BOUND ( 'NONE', #129, .T. ) ;
#95 = CARTESIAN_POINT ( 'NONE',  ( 5.000000000000000000, 0.000000000000000000, 0.1999999999999996503 ) ) ;
#96 = PRESENTATION_STYLE_ASSIGNMENT (( #225 ) ) ;
#97 = CIRCLE ( 'NONE', #48, 4.800000000000002487 ) ;
#98 = PLANE ( 'NONE',  #134 ) ;
#99 = DIRECTION ( 'NONE',  ( -0.000000000000000000, -0.000000000000000000, 1.000000000000000000 ) ) ;
#100 = VERTEX_POINT ( 'NONE', #133 ) ;
#101 = CARTESIAN_POINT ( 'NONE',  ( 0.000000000000000000, 0.000000000000000000, 1.000000000000000000 ) ) ;
#102 = CONICAL_SURFACE ( 'NONE', #24, 5.000000000000000000, 0.7853981633974503884 ) ;
#103 = SURFACE_SIDE_STYLE ('',( #139 ) ) ;
#104 = EDGE_CURVE ( 'NONE', #100, #143, #127, .T. ) ;
#105 = SURFACE_STYLE_USAGE ( .BOTH. , #103 ) ;
#106 = CARTESIAN_POINT ( 'NONE',  ( 5.000000000000000000, 6.123233995736766282E-16, 0.8000000000000012657 ) ) ;
#107 = EDGE_CURVE ( 'NONE', #50, #217, #43, .T. ) ;
#108 = DIRECTION ( 'NONE',  ( -1.000000000000000000, 0.000000000000000000, 0.000000000000000000 ) ) ;
#109 = DIRECTION ( 'NONE',  ( 0.000000000000000000, 0.000000000000000000, 1.000000000000000000 ) ) ;
#110 = ORIENTED_EDGE ( 'NONE', *, *, #104, .T. ) ;
#111 = VECTOR ( 'NONE', #178, 1000.000000000000114 ) ;
#112 = PRODUCT_RELATED_PRODUCT_CATEGORY ( 'part', '', ( #166 ) ) ;
#113 = CARTESIAN_POINT ( 'NONE',  ( 0.000000000000000000, 0.000000000000000000, 1.000000000000000000 ) ) ;
#114 = ORIENTED_EDGE ( 'NONE', *, *, #93, .T. ) ;
#115 = DIRECTION ( 'NONE',  ( 1.000000000000000000, 0.000000000000000000, 0.000000000000000000 ) ) ;
#116 = CARTESIAN_POINT ( 'NONE',  ( 0.000000000000000000, 0.000000000000000000, 0.8000000000000012657 ) ) ;
#117 = CLOSED_SHELL ( 'NONE', ( #227, #8, #214, #16, #51, #144, #32, #42 ) ) ;
#118 = CARTESIAN_POINT ( 'NONE',  ( 4.800000000000002487, 5.878304635907297169E-16, 1.000000000000000000 ) ) ;
#119 = DIRECTION ( 'NONE',  ( 0.000000000000000000, 0.000000000000000000, 1.000000000000000000 ) ) ;
#120 = ORIENTED_EDGE ( 'NONE', *, *, #206, .T. ) ;
#121 =( LENGTH_UNIT ( ) NAMED_UNIT ( * ) SI_UNIT ( .MILLI., .METRE. ) );
#122 = COLOUR_RGB ( '',1.000000000000000000, 1.000000000000000000, 1.000000000000000000 ) ;
#123 = VECTOR ( 'NONE', #149, 1000.000000000000000 ) ;
#124 = DIRECTION ( 'NONE',  ( 1.000000000000000000, 0.000000000000000000, 0.000000000000000000 ) ) ;
#125 = ORIENTED_EDGE ( 'NONE', *, *, #195, .F. ) ;
#126 = DIRECTION ( 'NONE',  ( 0.000000000000000000, 0.000000000000000000, -1.000000000000000000 ) ) ;
#127 = CIRCLE ( 'NONE', #92, 5.000000000000000000 ) ;
#128 = EDGE_CURVE ( 'NONE', #50, #143, #79, .T. ) ;
#129 = EDGE_LOOP ( 'NONE', ( #49, #2, #25, #72 ) ) ;
#130 = AXIS2_PLACEMENT_3D ( 'NONE', #31, #109, #12 ) ;
#131 = PRODUCT_DEFINITION_SHAPE ( 'NONE', 'NONE',  #152 ) ;
#132 = LINE ( 'NONE', #226, #123 ) ;
#133 = CARTESIAN_POINT ( 'NONE',  ( 5.000000000000000000, 6.123233995736766282E-16, 0.1999999999999996503 ) ) ;
#134 = AXIS2_PLACEMENT_3D ( 'NONE', #20, #119, #169 ) ;
#135 = MANIFOLD_SOLID_BREP ( 'µ¹½Ç1', #117 ) ;
#136 = VERTEX_POINT ( 'NONE', #41 ) ;
#137 = DIRECTION ( 'NONE',  ( 0.7071067811865460184, 8.659560562354913137E-17, -0.7071067811865489050 ) ) ;
#138 = ORIENTED_EDGE ( 'NONE', *, *, #5, .T. ) ;
#139 = SURFACE_STYLE_FILL_AREA ( #46 ) ;
#140 = CARTESIAN_POINT ( 'NONE',  ( 0.000000000000000000, 0.000000000000000000, 1.000000000000000000 ) ) ;
#141 = FACE_OUTER_BOUND ( 'NONE', #85, .T. ) ;
#142 = AXIS2_PLACEMENT_3D ( 'NONE', #116, #154, #240 ) ;
#143 = VERTEX_POINT ( 'NONE', #167 ) ;
#144 = ADVANCED_FACE ( 'NONE', ( #56 ), #98, .F. ) ;
#145 = DIRECTION ( 'NONE',  ( 0.000000000000000000, 0.000000000000000000, -1.000000000000000000 ) ) ;
#146 = FACE_OUTER_BOUND ( 'NONE', #194, .T. ) ;
#147 = MECHANICAL_DESIGN_GEOMETRIC_PRESENTATION_REPRESENTATION (  '', ( #14 ), #168 ) ;
#148 = DIRECTION ( 'NONE',  ( -0.000000000000000000, -0.000000000000000000, 1.000000000000000000 ) ) ;
#149 = DIRECTION ( 'NONE',  ( -0.7071067811865490160, 8.659560562354950115E-17, 0.7071067811865459074 ) ) ;
#150 = CYLINDRICAL_SURFACE ( 'NONE', #202, 5.000000000000000000 ) ;
#151 = SURFACE_SIDE_STYLE ('',( #208 ) ) ;
#152 = PRODUCT_DEFINITION ( 'Î´Öª', '', #90, #71 ) ;
#153 = ORIENTED_EDGE ( 'NONE', *, *, #128, .T. ) ;
#154 = DIRECTION ( 'NONE',  ( 0.000000000000000000, 0.000000000000000000, -1.000000000000000000 ) ) ;
#155 = VECTOR ( 'NONE', #185, 1000.000000000000000 ) ;
#156 = ORIENTED_EDGE ( 'NONE', *, *, #13, .T. ) ;
#157 = DIRECTION ( 'NONE',  ( -0.000000000000000000, -0.000000000000000000, -1.000000000000000000 ) ) ;
#158 = CARTESIAN_POINT ( 'NONE',  ( -5.000000000000000000, 0.000000000000000000, 0.8000000000000012657 ) ) ;
#159 =( NAMED_UNIT ( * ) SI_UNIT ( $, .STERADIAN. ) SOLID_ANGLE_UNIT ( ) );
#160 = UNCERTAINTY_MEASURE_WITH_UNIT (LENGTH_MEASURE( 1.000000000000000082E-05 ), #188, 'distance_accuracy_value', 'NONE');
#161 = EDGE_LOOP ( 'NONE', ( #18, #171 ) ) ;
#162 = ORIENTED_EDGE ( 'NONE', *, *, #195, .T. ) ;
#163 = EDGE_CURVE ( 'NONE', #136, #217, #22, .T. ) ;
#164 = CONICAL_SURFACE ( 'NONE', #74, 4.800000000000002487, 0.7853981633974461696 ) ;
#165 = CARTESIAN_POINT ( 'NONE',  ( 0.000000000000000000, 0.000000000000000000, 1.000000000000000000 ) ) ;
#166 = PRODUCT ( 'GNIF-220-3430-D10', 'GNIF-220-3430-D10', '', ( #47 ) ) ;
#167 = CARTESIAN_POINT ( 'NONE',  ( -5.000000000000000000, 0.000000000000000000, 0.1999999999999996503 ) ) ;
#168 =( GEOMETRIC_REPRESENTATION_CONTEXT ( 3 ) GLOBAL_UNCERTAINTY_ASSIGNED_CONTEXT ( ( #160 ) ) GLOBAL_UNIT_ASSIGNED_CONTEXT ( ( #188, #211, #65 ) ) REPRESENTATION_CONTEXT ( 'NONE', 'WORKASPACE' ) );
#169 = DIRECTION ( 'NONE',  ( 1.000000000000000000, 0.000000000000000000, -0.000000000000000000 ) ) ;
#170 = CARTESIAN_POINT ( 'NONE',  ( -5.000000000000000000, 0.000000000000000000, 1.000000000000000000 ) ) ;
#171 = ORIENTED_EDGE ( 'NONE', *, *, #184, .T. ) ;
#172 = DIRECTION ( 'NONE',  ( 1.000000000000000000, 0.000000000000000000, 0.000000000000000000 ) ) ;
#173 = VERTEX_POINT ( 'NONE', #38 ) ;
#174 = CARTESIAN_POINT ( 'NONE',  ( 0.000000000000000000, 0.000000000000000000, 1.000000000000000000 ) ) ;
#175 = DIRECTION ( 'NONE',  ( -0.000000000000000000, -0.000000000000000000, -1.000000000000000000 ) ) ;
#176 = MECHANICAL_DESIGN_GEOMETRIC_PRESENTATION_REPRESENTATION (  '', ( #34 ), #84 ) ;
#177 = DIRECTION ( 'NONE',  ( -0.000000000000000000, -0.000000000000000000, 1.000000000000000000 ) ) ;
#178 = DIRECTION ( 'NONE',  ( -0.7071067811865460184, 0.000000000000000000, -0.7071067811865489050 ) ) ;
#179 = VERTEX_POINT ( 'NONE', #222 ) ;
#180 = PRESENTATION_LAYER_ASSIGNMENT (  '', '', ( #14 ) ) ;
#181 = VECTOR ( 'NONE', #80, 1000.000000000000000 ) ;
#182 =( NAMED_UNIT ( * ) PLANE_ANGLE_UNIT ( ) SI_UNIT ( $, .RADIAN. ) );
#183 = FILL_AREA_STYLE ('',( #1 ) ) ;
#184 = EDGE_CURVE ( 'NONE', #198, #179, #224, .T. ) ;
#185 = DIRECTION ( 'NONE',  ( 0.7071067811865490160, 0.000000000000000000, 0.7071067811865459074 ) ) ;
#186 = DIRECTION ( 'NONE',  ( -0.000000000000000000, -0.000000000000000000, -1.000000000000000000 ) ) ;
#187 = ORIENTED_EDGE ( 'NONE', *, *, #107, .T. ) ;
#188 =( LENGTH_UNIT ( ) NAMED_UNIT ( * ) SI_UNIT ( .MILLI., .METRE. ) );
#189 =( GEOMETRIC_REPRESENTATION_CONTEXT ( 3 ) GLOBAL_UNCERTAINTY_ASSIGNED_CONTEXT ( ( #29 ) ) GLOBAL_UNIT_ASSIGNED_CONTEXT ( ( #121, #228, #159 ) ) REPRESENTATION_CONTEXT ( 'NONE', 'WORKASPACE' ) );
#190 = ORIENTED_EDGE ( 'NONE', *, *, #13, .F. ) ;
#191 = CARTESIAN_POINT ( 'NONE',  ( 0.000000000000000000, 0.000000000000000000, 0.1999999999999996503 ) ) ;
#192 = UNCERTAINTY_MEASURE_WITH_UNIT (LENGTH_MEASURE( 1.000000000000000082E-05 ), #221, 'distance_accuracy_value', 'NONE');
#193 = CIRCLE ( 'NONE', #40, 5.000000000000000000 ) ;
#194 = EDGE_LOOP ( 'NONE', ( #37, #219, #81, #67 ) ) ;
#195 = EDGE_CURVE ( 'NONE', #173, #136, #199, .T. ) ;
#196 = APPLICATION_PROTOCOL_DEFINITION ( 'draft international standard', 'automotive_design', 1998, #6 ) ;
#197 = PLANE ( 'NONE',  #130 ) ;
#198 = VERTEX_POINT ( 'NONE', #82 ) ;
#199 = CIRCLE ( 'NONE', #220, 4.800000000000002487 ) ;
#200 = CYLINDRICAL_SURFACE ( 'NONE', #52, 5.000000000000000000 ) ;
#201 = EDGE_CURVE ( 'NONE', #198, #143, #132, .T. ) ;
#202 = AXIS2_PLACEMENT_3D ( 'NONE', #174, #175, #26 ) ;
#203 = ORIENTED_EDGE ( 'NONE', *, *, #76, .F. ) ;
#204 =( NAMED_UNIT ( * ) SI_UNIT ( $, .STERADIAN. ) SOLID_ANGLE_UNIT ( ) );
#205 = DIRECTION ( 'NONE',  ( -0.000000000000000000, -0.000000000000000000, -1.000000000000000000 ) ) ;
#206 = EDGE_CURVE ( 'NONE', #217, #100, #39, .T. ) ;
#207 = COLOUR_RGB ( '',1.000000000000000000, 1.000000000000000000, 1.000000000000000000 ) ;
#208 = SURFACE_STYLE_FILL_AREA ( #183 ) ;
#209 = FACE_OUTER_BOUND ( 'NONE', #60, .T. ) ;
#210 = APPLICATION_CONTEXT ( 'automotive_design' ) ;
#211 =( NAMED_UNIT ( * ) PLANE_ANGLE_UNIT ( ) SI_UNIT ( $, .RADIAN. ) );
#212 = EDGE_LOOP ( 'NONE', ( #9, #156, #153, #83 ) ) ;
#213 = PRESENTATION_STYLE_ASSIGNMENT (( #105 ) ) ;
#214 = ADVANCED_FACE ( 'NONE', ( #209 ), #150, .T. ) ;
#215 = FACE_OUTER_BOUND ( 'NONE', #91, .T. ) ;
#216 = CONICAL_SURFACE ( 'NONE', #89, 5.000000000000000000, 0.7853981633974503884 ) ;
#217 = VERTEX_POINT ( 'NONE', #106 ) ;
#218 = CARTESIAN_POINT ( 'NONE',  ( -4.800000000000002487, 0.000000000000000000, 1.000000000000000000 ) ) ;
#219 = ORIENTED_EDGE ( 'NONE', *, *, #236, .F. ) ;
#220 = AXIS2_PLACEMENT_3D ( 'NONE', #101, #4, #115 ) ;
#221 =( LENGTH_UNIT ( ) NAMED_UNIT ( * ) SI_UNIT ( .MILLI., .METRE. ) );
#222 = CARTESIAN_POINT ( 'NONE',  ( 4.799999999999999822, 0.000000000000000000, 0.000000000000000000 ) ) ;
#223 = DIRECTION ( 'NONE',  ( 1.000000000000000000, 0.000000000000000000, 0.000000000000000000 ) ) ;
#224 = CIRCLE ( 'NONE', #69, 4.799999999999999822 ) ;
#225 = SURFACE_STYLE_USAGE ( .BOTH. , #151 ) ;
#226 = CARTESIAN_POINT ( 'NONE',  ( -5.000000000000000000, 6.123233995736765296E-16, 0.1999999999999996503 ) ) ;
#227 = ADVANCED_FACE ( 'NONE', ( #86 ), #102, .T. ) ;
#228 =( NAMED_UNIT ( * ) PLANE_ANGLE_UNIT ( ) SI_UNIT ( $, .RADIAN. ) );
#229 = LINE ( 'NONE', #218, #111 ) ;
#230 = DIRECTION ( 'NONE',  ( 1.000000000000000000, 0.000000000000000000, 0.000000000000000000 ) ) ;
#231 = DIRECTION ( 'NONE',  ( 0.000000000000000000, 0.000000000000000000, -1.000000000000000000 ) ) ;
#232 = SHAPE_DEFINITION_REPRESENTATION ( #131, #70 ) ;
#233 = ORIENTED_EDGE ( 'NONE', *, *, #201, .T. ) ;
#234 = ORIENTED_EDGE ( 'NONE', *, *, #163, .F. ) ;
#235 = VECTOR ( 'NONE', #137, 1000.000000000000114 ) ;
#236 = EDGE_CURVE ( 'NONE', #179, #198, #68, .T. ) ;
#237 = ORIENTED_EDGE ( 'NONE', *, *, #184, .F. ) ;
#238 = DIRECTION ( 'NONE',  ( 0.000000000000000000, 0.000000000000000000, 1.000000000000000000 ) ) ;
#239 = CARTESIAN_POINT ( 'NONE',  ( 0.000000000000000000, 0.000000000000000000, 0.1999999999999996503 ) ) ;
#240 = DIRECTION ( 'NONE',  ( 1.000000000000000000, 0.000000000000000000, 0.000000000000000000 ) ) ;
ENDSEC;
END-ISO-10303-21;
