ISO-10303-21;
HEADER;
FILE_DESCRIPTION (( 'STEP AP214' ),
    '1' );
FILE_NAME ('GNIF-170-4550-D10.STEP',
    '2024-07-19T14:43:40',
    ( '' ),
    ( '' ),
    'SwSTEP 2.0',
    'SolidWorks 2022',
    '' );
FILE_SCHEMA (( 'AUTOMOTIVE_DESIGN' ));
ENDSEC;

DATA;
#1 = CARTESIAN_POINT ( 'NONE',  ( -5.000000000000000000, 0.000000000000000000, 0.1999999999999996503 ) ) ;
#2 = COLOUR_RGB ( '',1.000000000000000000, 1.000000000000000000, 1.000000000000000000 ) ;
#3 = DIRECTION ( 'NONE',  ( 1.000000000000000000, 0.000000000000000000, 0.000000000000000000 ) ) ;
#4 =( NAMED_UNIT ( * ) SI_UNIT ( $, .STERADIAN. ) SOLID_ANGLE_UNIT ( ) );
#5 = ADVANCED_FACE ( 'NONE', ( #108 ), #74, .F. ) ;
#6 = FACE_OUTER_BOUND ( 'NONE', #126, .T. ) ;
#7 = LINE ( 'NONE', #226, #94 ) ;
#8 = AXIS2_PLACEMENT_3D ( 'NONE', #83, #84, #134 ) ;
#9 = CONICAL_SURFACE ( 'NONE', #129, 4.800000000000002487, 0.7853981633974461696 ) ;
#10 = APPLICATION_CONTEXT ( 'automotive_design' ) ;
#11 = AXIS2_PLACEMENT_3D ( 'NONE', #97, #133, #175 ) ;
#12 = CARTESIAN_POINT ( 'NONE',  ( 5.000000000000000000, 6.123233995736766282E-16, 1.000000000000000000 ) ) ;
#13 = EDGE_LOOP ( 'NONE', ( #218, #163 ) ) ;
#14 = ORIENTED_EDGE ( 'NONE', *, *, #190, .F. ) ;
#15 = FILL_AREA_STYLE_COLOUR ( '', #24 ) ;
#16 = FILL_AREA_STYLE ('',( #80 ) ) ;
#17 = ORIENTED_EDGE ( 'NONE', *, *, #20, .T. ) ;
#18 =( LENGTH_UNIT ( ) NAMED_UNIT ( * ) SI_UNIT ( .MILLI., .METRE. ) );
#19 = CARTESIAN_POINT ( 'NONE',  ( 0.000000000000000000, 0.000000000000000000, 0.1999999999999996503 ) ) ;
#20 = EDGE_CURVE ( 'NONE', #236, #58, #49, .T. ) ;
#21 = FACE_OUTER_BOUND ( 'NONE', #54, .T. ) ;
#22 = DIRECTION ( 'NONE',  ( -1.000000000000000000, 0.000000000000000000, 0.000000000000000000 ) ) ;
#23 =( NAMED_UNIT ( * ) PLANE_ANGLE_UNIT ( ) SI_UNIT ( $, .RADIAN. ) );
#24 = COLOUR_RGB ( '',1.000000000000000000, 1.000000000000000000, 1.000000000000000000 ) ;
#25 = CIRCLE ( 'NONE', #158, 5.000000000000000000 ) ;
#26 = CARTESIAN_POINT ( 'NONE',  ( 0.000000000000000000, 0.000000000000000000, 0.000000000000000000 ) ) ;
#27 = CARTESIAN_POINT ( 'NONE',  ( 5.000000000000000000, 6.123233995736766282E-16, 0.8000000000000012657 ) ) ;
#28 = ADVANCED_FACE ( 'NONE', ( #171 ), #114, .T. ) ;
#29 = DIRECTION ( 'NONE',  ( 0.000000000000000000, 0.000000000000000000, 1.000000000000000000 ) ) ;
#30 =( GEOMETRIC_REPRESENTATION_CONTEXT ( 3 ) GLOBAL_UNCERTAINTY_ASSIGNED_CONTEXT ( ( #100 ) ) GLOBAL_UNIT_ASSIGNED_CONTEXT ( ( #18, #131, #35 ) ) REPRESENTATION_CONTEXT ( 'NONE', 'WORKASPACE' ) );
#31 = SURFACE_STYLE_FILL_AREA ( #16 ) ;
#32 = ORIENTED_EDGE ( 'NONE', *, *, #174, .T. ) ;
#33 = ORIENTED_EDGE ( 'NONE', *, *, #112, .F. ) ;
#34 = PRODUCT_DEFINITION_CONTEXT ( 'detailed design', #76, 'design' ) ;
#35 =( NAMED_UNIT ( * ) SI_UNIT ( $, .STERADIAN. ) SOLID_ANGLE_UNIT ( ) );
#36 = LINE ( 'NONE', #178, #206 ) ;
#37 = ORIENTED_EDGE ( 'NONE', *, *, #223, .F. ) ;
#38 = DIRECTION ( 'NONE',  ( -0.000000000000000000, -0.000000000000000000, -1.000000000000000000 ) ) ;
#39 = DIRECTION ( 'NONE',  ( 0.7071067811865460184, 8.659560562354913137E-17, -0.7071067811865489050 ) ) ;
#40 = AXIS2_PLACEMENT_3D ( 'NONE', #210, #192, #154 ) ;
#41 = FACE_OUTER_BOUND ( 'NONE', #202, .T. ) ;
#42 = PRODUCT_RELATED_PRODUCT_CATEGORY ( 'part', '', ( #145 ) ) ;
#43 = AXIS2_PLACEMENT_3D ( 'NONE', #184, #208, #172 ) ;
#44 = AXIS2_PLACEMENT_3D ( 'NONE', #113, #38, #111 ) ;
#45 = DIRECTION ( 'NONE',  ( 1.000000000000000000, 0.000000000000000000, 0.000000000000000000 ) ) ;
#46 = ADVANCED_FACE ( 'NONE', ( #101 ), #9, .T. ) ;
#47 = DIRECTION ( 'NONE',  ( 1.000000000000000000, 0.000000000000000000, -0.000000000000000000 ) ) ;
#48 = UNCERTAINTY_MEASURE_WITH_UNIT (LENGTH_MEASURE( 1.000000000000000082E-05 ), #116, 'distance_accuracy_value', 'NONE');
#49 = LINE ( 'NONE', #110, #231 ) ;
#50 = ORIENTED_EDGE ( 'NONE', *, *, #90, .T. ) ;
#51 = LINE ( 'NONE', #12, #177 ) ;
#52 = ORIENTED_EDGE ( 'NONE', *, *, #53, .T. ) ;
#53 = EDGE_CURVE ( 'NONE', #88, #124, #170, .T. ) ;
#54 = EDGE_LOOP ( 'NONE', ( #181, #17, #164, #70 ) ) ;
#55 = VERTEX_POINT ( 'NONE', #222 ) ;
#56 =( GEOMETRIC_REPRESENTATION_CONTEXT ( 3 ) GLOBAL_UNCERTAINTY_ASSIGNED_CONTEXT ( ( #48 ) ) GLOBAL_UNIT_ASSIGNED_CONTEXT ( ( #116, #23, #4 ) ) REPRESENTATION_CONTEXT ( 'NONE', 'WORKASPACE' ) );
#57 = SURFACE_SIDE_STYLE ('',( #109 ) ) ;
#58 = VERTEX_POINT ( 'NONE', #1 ) ;
#59 = CONICAL_SURFACE ( 'NONE', #66, 5.000000000000000000, 0.7853981633974503884 ) ;
#60 = CARTESIAN_POINT ( 'NONE',  ( 0.000000000000000000, 0.000000000000000000, 0.1999999999999996503 ) ) ;
#61 = DIRECTION ( 'NONE',  ( 1.000000000000000000, 0.000000000000000000, 0.000000000000000000 ) ) ;
#62 = CARTESIAN_POINT ( 'NONE',  ( 0.000000000000000000, 0.000000000000000000, 0.1999999999999996503 ) ) ;
#63 = AXIS2_PLACEMENT_3D ( 'NONE', #71, #144, #199 ) ;
#64 = CARTESIAN_POINT ( 'NONE',  ( 0.000000000000000000, 0.000000000000000000, 1.000000000000000000 ) ) ;
#65 = EDGE_CURVE ( 'NONE', #213, #55, #51, .T. ) ;
#66 = AXIS2_PLACEMENT_3D ( 'NONE', #19, #92, #61 ) ;
#67 = ORIENTED_EDGE ( 'NONE', *, *, #223, .T. ) ;
#68 = DIRECTION ( 'NONE',  ( 0.000000000000000000, 0.000000000000000000, -1.000000000000000000 ) ) ;
#69 = EDGE_CURVE ( 'NONE', #55, #58, #25, .T. ) ;
#70 = ORIENTED_EDGE ( 'NONE', *, *, #89, .F. ) ;
#71 = CARTESIAN_POINT ( 'NONE',  ( 0.000000000000000000, 0.000000000000000000, 0.000000000000000000 ) ) ;
#72 = CIRCLE ( 'NONE', #11, 4.800000000000002487 ) ;
#73 = VECTOR ( 'NONE', #234, 1000.000000000000000 ) ;
#74 = PLANE ( 'NONE',  #160 ) ;
#75 = DIRECTION ( 'NONE',  ( -0.7071067811865460184, 0.000000000000000000, -0.7071067811865489050 ) ) ;
#76 = APPLICATION_CONTEXT ( 'automotive_design' ) ;
#77 = CARTESIAN_POINT ( 'NONE',  ( 0.000000000000000000, 0.000000000000000000, 0.8000000000000012657 ) ) ;
#78 = AXIS2_PLACEMENT_3D ( 'NONE', #203, #187, #148 ) ;
#79 = FILL_AREA_STYLE ('',( #15 ) ) ;
#80 = FILL_AREA_STYLE_COLOUR ( '', #2 ) ;
#81 = SHAPE_DEFINITION_REPRESENTATION ( #238, #155 ) ;
#82 = SURFACE_STYLE_USAGE ( .BOTH. , #141 ) ;
#83 = CARTESIAN_POINT ( 'NONE',  ( 0.000000000000000000, 0.000000000000000000, 1.000000000000000000 ) ) ;
#84 = DIRECTION ( 'NONE',  ( 0.000000000000000000, 0.000000000000000000, -1.000000000000000000 ) ) ;
#85 = ADVANCED_FACE ( 'NONE', ( #95 ), #240, .T. ) ;
#86 = PLANE ( 'NONE',  #179 ) ;
#87 = DIRECTION ( 'NONE',  ( 1.000000000000000000, 0.000000000000000000, 0.000000000000000000 ) ) ;
#88 = VERTEX_POINT ( 'NONE', #165 ) ;
#89 = EDGE_CURVE ( 'NONE', #127, #55, #205, .T. ) ;
#90 = EDGE_CURVE ( 'NONE', #124, #213, #36, .T. ) ;
#91 = DIRECTION ( 'NONE',  ( 1.000000000000000000, 0.000000000000000000, 0.000000000000000000 ) ) ;
#92 = DIRECTION ( 'NONE',  ( -0.000000000000000000, -0.000000000000000000, 1.000000000000000000 ) ) ;
#93 = CARTESIAN_POINT ( 'NONE',  ( 0.000000000000000000, 0.000000000000000000, 0.1999999999999996503 ) ) ;
#94 = VECTOR ( 'NONE', #135, 1000.000000000000000 ) ;
#95 = FACE_OUTER_BOUND ( 'NONE', #237, .T. ) ;
#96 = CYLINDRICAL_SURFACE ( 'NONE', #196, 5.000000000000000000 ) ;
#97 = CARTESIAN_POINT ( 'NONE',  ( 0.000000000000000000, 0.000000000000000000, 1.000000000000000000 ) ) ;
#98 =( LENGTH_UNIT ( ) NAMED_UNIT ( * ) SI_UNIT ( .MILLI., .METRE. ) );
#99 = DIRECTION ( 'NONE',  ( 1.000000000000000000, 0.000000000000000000, -0.000000000000000000 ) ) ;
#100 = UNCERTAINTY_MEASURE_WITH_UNIT (LENGTH_MEASURE( 1.000000000000000082E-05 ), #18, 'distance_accuracy_value', 'NONE');
#101 = FACE_OUTER_BOUND ( 'NONE', #103, .T. ) ;
#102 = ADVANCED_FACE ( 'NONE', ( #21 ), #59, .T. ) ;
#103 = EDGE_LOOP ( 'NONE', ( #214, #183, #197, #14 ) ) ;
#104 = AXIS2_PLACEMENT_3D ( 'NONE', #93, #122, #91 ) ;
#105 = ORIENTED_EDGE ( 'NONE', *, *, #121, .T. ) ;
#106 = CARTESIAN_POINT ( 'NONE',  ( -4.800000000000002487, 0.000000000000000000, 1.000000000000000000 ) ) ;
#107 = ORIENTED_EDGE ( 'NONE', *, *, #69, .T. ) ;
#108 = FACE_OUTER_BOUND ( 'NONE', #13, .T. ) ;
#109 = SURFACE_STYLE_FILL_AREA ( #79 ) ;
#110 = CARTESIAN_POINT ( 'NONE',  ( -5.000000000000000000, 6.123233995736765296E-16, 0.1999999999999996503 ) ) ;
#111 = DIRECTION ( 'NONE',  ( 1.000000000000000000, 0.000000000000000000, 0.000000000000000000 ) ) ;
#112 = EDGE_CURVE ( 'NONE', #88, #185, #168, .T. ) ;
#113 = CARTESIAN_POINT ( 'NONE',  ( 0.000000000000000000, 0.000000000000000000, 0.000000000000000000 ) ) ;
#114 = CONICAL_SURFACE ( 'NONE', #104, 5.000000000000000000, 0.7853981633974503884 ) ;
#115 = PRESENTATION_LAYER_ASSIGNMENT (  '', '', ( #229 ) ) ;
#116 =( LENGTH_UNIT ( ) NAMED_UNIT ( * ) SI_UNIT ( .MILLI., .METRE. ) );
#117 = PRODUCT_DEFINITION ( 'Î´Öª', '', #193, #34 ) ;
#118 = APPLICATION_PROTOCOL_DEFINITION ( 'draft international standard', 'automotive_design', 1998, #76 ) ;
#119 = AXIS2_PLACEMENT_3D ( 'NONE', #77, #221, #3 ) ;
#120 = CARTESIAN_POINT ( 'NONE',  ( -4.799999999999999822, 6.000769315822029754E-16, 0.000000000000000000 ) ) ;
#121 = EDGE_CURVE ( 'NONE', #185, #213, #220, .T. ) ;
#122 = DIRECTION ( 'NONE',  ( -0.000000000000000000, -0.000000000000000000, 1.000000000000000000 ) ) ;
#123 = ORIENTED_EDGE ( 'NONE', *, *, #159, .T. ) ;
#124 = VERTEX_POINT ( 'NONE', #130 ) ;
#125 = CIRCLE ( 'NONE', #219, 5.000000000000000000 ) ;
#126 = EDGE_LOOP ( 'NONE', ( #52, #67 ) ) ;
#127 = VERTEX_POINT ( 'NONE', #204 ) ;
#128 = DIRECTION ( 'NONE',  ( -0.000000000000000000, -0.000000000000000000, 1.000000000000000000 ) ) ;
#129 = AXIS2_PLACEMENT_3D ( 'NONE', #186, #68, #22 ) ;
#130 = CARTESIAN_POINT ( 'NONE',  ( 4.800000000000002487, 6.000769315822031726E-16, 1.000000000000000000 ) ) ;
#131 =( NAMED_UNIT ( * ) PLANE_ANGLE_UNIT ( ) SI_UNIT ( $, .RADIAN. ) );
#132 = CARTESIAN_POINT ( 'NONE',  ( 0.000000000000000000, 0.000000000000000000, 1.000000000000000000 ) ) ;
#133 = DIRECTION ( 'NONE',  ( 0.000000000000000000, 0.000000000000000000, 1.000000000000000000 ) ) ;
#134 = DIRECTION ( 'NONE',  ( -1.000000000000000000, 0.000000000000000000, 0.000000000000000000 ) ) ;
#135 = DIRECTION ( 'NONE',  ( -0.000000000000000000, -0.000000000000000000, -1.000000000000000000 ) ) ;
#136 =( NAMED_UNIT ( * ) SI_UNIT ( $, .STERADIAN. ) SOLID_ANGLE_UNIT ( ) );
#137 = EDGE_CURVE ( 'NONE', #236, #127, #149, .T. ) ;
#138 = MANIFOLD_SOLID_BREP ( 'µ¹½Ç1', #211 ) ;
#139 = UNCERTAINTY_MEASURE_WITH_UNIT (LENGTH_MEASURE( 1.000000000000000082E-05 ), #98, 'distance_accuracy_value', 'NONE');
#140 = EDGE_LOOP ( 'NONE', ( #105, #180, #107, #198 ) ) ;
#141 = SURFACE_SIDE_STYLE ('',( #31 ) ) ;
#142 = ORIENTED_EDGE ( 'NONE', *, *, #121, .F. ) ;
#143 = CIRCLE ( 'NONE', #40, 5.000000000000000000 ) ;
#144 = DIRECTION ( 'NONE',  ( 0.000000000000000000, 0.000000000000000000, 1.000000000000000000 ) ) ;
#145 = PRODUCT ( 'GNIF-170-4550-D10', 'GNIF-170-4550-D10', '', ( #191 ) ) ;
#146 = ORIENTED_EDGE ( 'NONE', *, *, #20, .F. ) ;
#147 = EDGE_CURVE ( 'NONE', #127, #236, #228, .T. ) ;
#148 = DIRECTION ( 'NONE',  ( -1.000000000000000000, 0.000000000000000000, 0.000000000000000000 ) ) ;
#149 = CIRCLE ( 'NONE', #44, 4.799999999999999822 ) ;
#150 =( GEOMETRIC_REPRESENTATION_CONTEXT ( 3 ) GLOBAL_UNCERTAINTY_ASSIGNED_CONTEXT ( ( #139 ) ) GLOBAL_UNIT_ASSIGNED_CONTEXT ( ( #98, #176, #136 ) ) REPRESENTATION_CONTEXT ( 'NONE', 'WORKASPACE' ) );
#151 = APPLICATION_PROTOCOL_DEFINITION ( 'draft international standard', 'automotive_design', 1998, #10 ) ;
#152 = DIRECTION ( 'NONE',  ( 0.000000000000000000, 0.000000000000000000, 1.000000000000000000 ) ) ;
#153 = DIRECTION ( 'NONE',  ( -0.000000000000000000, -0.000000000000000000, -1.000000000000000000 ) ) ;
#154 = DIRECTION ( 'NONE',  ( 1.000000000000000000, 0.000000000000000000, 0.000000000000000000 ) ) ;
#155 = ADVANCED_BREP_SHAPE_REPRESENTATION ( 'GNIF-170-4550-D10', ( #138, #63 ), #56 ) ;
#156 = CARTESIAN_POINT ( 'NONE',  ( -5.000000000000000000, 0.000000000000000000, 0.8000000000000012657 ) ) ;
#157 = CARTESIAN_POINT ( 'NONE',  ( 0.000000000000000000, 0.000000000000000000, 1.000000000000000000 ) ) ;
#158 = AXIS2_PLACEMENT_3D ( 'NONE', #60, #128, #169 ) ;
#159 = EDGE_CURVE ( 'NONE', #185, #58, #7, .T. ) ;
#160 = AXIS2_PLACEMENT_3D ( 'NONE', #26, #29, #99 ) ;
#161 = DIRECTION ( 'NONE',  ( -0.000000000000000000, -0.000000000000000000, -1.000000000000000000 ) ) ;
#162 = EDGE_LOOP ( 'NONE', ( #146, #200, #235, #232 ) ) ;
#163 = ORIENTED_EDGE ( 'NONE', *, *, #137, .T. ) ;
#164 = ORIENTED_EDGE ( 'NONE', *, *, #69, .F. ) ;
#165 = CARTESIAN_POINT ( 'NONE',  ( -4.800000000000002487, 0.000000000000000000, 1.000000000000000000 ) ) ;
#166 = MECHANICAL_DESIGN_GEOMETRIC_PRESENTATION_REPRESENTATION (  '', ( #207 ), #30 ) ;
#167 = ADVANCED_FACE ( 'NONE', ( #188 ), #96, .T. ) ;
#168 = LINE ( 'NONE', #106, #189 ) ;
#169 = DIRECTION ( 'NONE',  ( 1.000000000000000000, 0.000000000000000000, 0.000000000000000000 ) ) ;
#170 = CIRCLE ( 'NONE', #173, 4.800000000000002487 ) ;
#171 = FACE_OUTER_BOUND ( 'NONE', #162, .T. ) ;
#172 = DIRECTION ( 'NONE',  ( 1.000000000000000000, 0.000000000000000000, 0.000000000000000000 ) ) ;
#173 = AXIS2_PLACEMENT_3D ( 'NONE', #132, #152, #87 ) ;
#174 = EDGE_CURVE ( 'NONE', #58, #55, #125, .T. ) ;
#175 = DIRECTION ( 'NONE',  ( 1.000000000000000000, 0.000000000000000000, 0.000000000000000000 ) ) ;
#176 =( NAMED_UNIT ( * ) PLANE_ANGLE_UNIT ( ) SI_UNIT ( $, .RADIAN. ) );
#177 = VECTOR ( 'NONE', #161, 1000.000000000000000 ) ;
#178 = CARTESIAN_POINT ( 'NONE',  ( 4.800000000000002487, 5.878304635907297169E-16, 1.000000000000000000 ) ) ;
#179 = AXIS2_PLACEMENT_3D ( 'NONE', #157, #227, #47 ) ;
#180 = ORIENTED_EDGE ( 'NONE', *, *, #65, .T. ) ;
#181 = ORIENTED_EDGE ( 'NONE', *, *, #137, .F. ) ;
#182 = ADVANCED_FACE ( 'NONE', ( #41 ), #215, .T. ) ;
#183 = ORIENTED_EDGE ( 'NONE', *, *, #53, .F. ) ;
#184 = CARTESIAN_POINT ( 'NONE',  ( 0.000000000000000000, 0.000000000000000000, 0.000000000000000000 ) ) ;
#185 = VERTEX_POINT ( 'NONE', #156 ) ;
#186 = CARTESIAN_POINT ( 'NONE',  ( 0.000000000000000000, 0.000000000000000000, 1.000000000000000000 ) ) ;
#187 = DIRECTION ( 'NONE',  ( -0.000000000000000000, -0.000000000000000000, -1.000000000000000000 ) ) ;
#188 = FACE_OUTER_BOUND ( 'NONE', #140, .T. ) ;
#189 = VECTOR ( 'NONE', #75, 1000.000000000000114 ) ;
#190 = EDGE_CURVE ( 'NONE', #213, #185, #143, .T. ) ;
#191 = PRODUCT_CONTEXT ( 'NONE', #10, 'mechanical' ) ;
#192 = DIRECTION ( 'NONE',  ( 0.000000000000000000, 0.000000000000000000, -1.000000000000000000 ) ) ;
#193 = PRODUCT_DEFINITION_FORMATION_WITH_SPECIFIED_SOURCE ( 'ÈÎºÎ', '', #145, .NOT_KNOWN. ) ;
#194 = CARTESIAN_POINT ( 'NONE',  ( 5.000000000000000000, 0.000000000000000000, 0.1999999999999996503 ) ) ;
#195 = ORIENTED_EDGE ( 'NONE', *, *, #190, .T. ) ;
#196 = AXIS2_PLACEMENT_3D ( 'NONE', #64, #153, #224 ) ;
#197 = ORIENTED_EDGE ( 'NONE', *, *, #112, .T. ) ;
#198 = ORIENTED_EDGE ( 'NONE', *, *, #159, .F. ) ;
#199 = DIRECTION ( 'NONE',  ( 1.000000000000000000, 0.000000000000000000, 0.000000000000000000 ) ) ;
#200 = ORIENTED_EDGE ( 'NONE', *, *, #147, .F. ) ;
#201 = DIRECTION ( 'NONE',  ( -0.7071067811865490160, 8.659560562354950115E-17, 0.7071067811865459074 ) ) ;
#202 = EDGE_LOOP ( 'NONE', ( #37, #50, #142, #33 ) ) ;
#203 = CARTESIAN_POINT ( 'NONE',  ( 0.000000000000000000, 0.000000000000000000, 1.000000000000000000 ) ) ;
#204 = CARTESIAN_POINT ( 'NONE',  ( 4.799999999999999822, 0.000000000000000000, 0.000000000000000000 ) ) ;
#205 = LINE ( 'NONE', #194, #73 ) ;
#206 = VECTOR ( 'NONE', #39, 1000.000000000000114 ) ;
#207 = STYLED_ITEM ( 'NONE', ( #217 ), #155 ) ;
#208 = DIRECTION ( 'NONE',  ( -0.000000000000000000, -0.000000000000000000, -1.000000000000000000 ) ) ;
#209 = DIRECTION ( 'NONE',  ( -0.000000000000000000, -0.000000000000000000, 1.000000000000000000 ) ) ;
#210 = CARTESIAN_POINT ( 'NONE',  ( 0.000000000000000000, 0.000000000000000000, 0.8000000000000012657 ) ) ;
#211 = CLOSED_SHELL ( 'NONE', ( #102, #182, #167, #85, #233, #5, #46, #28 ) ) ;
#212 = PRESENTATION_STYLE_ASSIGNMENT (( #82 ) ) ;
#213 = VERTEX_POINT ( 'NONE', #27 ) ;
#214 = ORIENTED_EDGE ( 'NONE', *, *, #90, .F. ) ;
#215 = CONICAL_SURFACE ( 'NONE', #8, 4.800000000000002487, 0.7853981633974461696 ) ;
#216 = ORIENTED_EDGE ( 'NONE', *, *, #65, .F. ) ;
#217 = PRESENTATION_STYLE_ASSIGNMENT (( #239 ) ) ;
#218 = ORIENTED_EDGE ( 'NONE', *, *, #147, .T. ) ;
#219 = AXIS2_PLACEMENT_3D ( 'NONE', #62, #209, #45 ) ;
#220 = CIRCLE ( 'NONE', #119, 5.000000000000000000 ) ;
#221 = DIRECTION ( 'NONE',  ( 0.000000000000000000, 0.000000000000000000, -1.000000000000000000 ) ) ;
#222 = CARTESIAN_POINT ( 'NONE',  ( 5.000000000000000000, 6.123233995736766282E-16, 0.1999999999999996503 ) ) ;
#223 = EDGE_CURVE ( 'NONE', #124, #88, #72, .T. ) ;
#224 = DIRECTION ( 'NONE',  ( -1.000000000000000000, 0.000000000000000000, 0.000000000000000000 ) ) ;
#225 = PRESENTATION_LAYER_ASSIGNMENT (  '', '', ( #207 ) ) ;
#226 = CARTESIAN_POINT ( 'NONE',  ( -5.000000000000000000, 0.000000000000000000, 1.000000000000000000 ) ) ;
#227 = DIRECTION ( 'NONE',  ( 0.000000000000000000, 0.000000000000000000, 1.000000000000000000 ) ) ;
#228 = CIRCLE ( 'NONE', #43, 4.799999999999999822 ) ;
#229 = STYLED_ITEM ( 'NONE', ( #212 ), #138 ) ;
#230 = MECHANICAL_DESIGN_GEOMETRIC_PRESENTATION_REPRESENTATION (  '', ( #229 ), #150 ) ;
#231 = VECTOR ( 'NONE', #201, 1000.000000000000000 ) ;
#232 = ORIENTED_EDGE ( 'NONE', *, *, #174, .F. ) ;
#233 = ADVANCED_FACE ( 'NONE', ( #6 ), #86, .T. ) ;
#234 = DIRECTION ( 'NONE',  ( 0.7071067811865490160, 0.000000000000000000, 0.7071067811865459074 ) ) ;
#235 = ORIENTED_EDGE ( 'NONE', *, *, #89, .T. ) ;
#236 = VERTEX_POINT ( 'NONE', #120 ) ;
#237 = EDGE_LOOP ( 'NONE', ( #216, #195, #123, #32 ) ) ;
#238 = PRODUCT_DEFINITION_SHAPE ( 'NONE', 'NONE',  #117 ) ;
#239 = SURFACE_STYLE_USAGE ( .BOTH. , #57 ) ;
#240 = CYLINDRICAL_SURFACE ( 'NONE', #78, 5.000000000000000000 ) ;
ENDSEC;
END-ISO-10303-21;
