ISO-10303-21;
HEADER;
FILE_DESCRIPTION (( 'STEP AP214' ),
    '1' );
FILE_NAME ('GNIF-070-4680-D25.STEP',
    '2024-07-19T14:24:02',
    ( '' ),
    ( '' ),
    'SwSTEP 2.0',
    'SolidWorks 2022',
    '' );
FILE_SCHEMA (( 'AUTOMOTIVE_DESIGN' ));
ENDSEC;

DATA;
#1 = DIRECTION ( 'NONE',  ( 0.000000000000000000, 0.000000000000000000, -1.000000000000000000 ) ) ;
#2 = VECTOR ( 'NONE', #83, 1000.000000000000000 ) ;
#3 = EDGE_CURVE ( 'NONE', #160, #215, #62, .T. ) ;
#4 = EDGE_LOOP ( 'NONE', ( #180, #157, #172, #195 ) ) ;
#5 = ORIENTED_EDGE ( 'NONE', *, *, #113, .F. ) ;
#6 = LINE ( 'NONE', #61, #230 ) ;
#7 = AXIS2_PLACEMENT_3D ( 'NONE', #194, #197, #104 ) ;
#8 = CARTESIAN_POINT ( 'NONE',  ( 0.000000000000000000, 0.000000000000000000, 0.000000000000000000 ) ) ;
#9 = PLANE ( 'NONE',  #69 ) ;
#10 = DIRECTION ( 'NONE',  ( -0.000000000000000000, -0.000000000000000000, -1.000000000000000000 ) ) ;
#11 = DIRECTION ( 'NONE',  ( -0.000000000000000000, -0.000000000000000000, -1.000000000000000000 ) ) ;
#12 = ADVANCED_FACE ( 'NONE', ( #179 ), #99, .T. ) ;
#13 = CYLINDRICAL_SURFACE ( 'NONE', #18, 12.50000000000000000 ) ;
#14 =( NAMED_UNIT ( * ) PLANE_ANGLE_UNIT ( ) SI_UNIT ( $, .RADIAN. ) );
#15 = DIRECTION ( 'NONE',  ( 0.7071067811865474617, 0.000000000000000000, 0.7071067811865474617 ) ) ;
#16 = CARTESIAN_POINT ( 'NONE',  ( 0.000000000000000000, 0.000000000000000000, 1.000000000000000000 ) ) ;
#17 = PRODUCT_DEFINITION ( 'Î´Öª', '', #121, #90 ) ;
#18 = AXIS2_PLACEMENT_3D ( 'NONE', #49, #150, #67 ) ;
#19 = CLOSED_SHELL ( 'NONE', ( #29, #129, #12, #96, #24, #40, #170, #135 ) ) ;
#20 = SHAPE_DEFINITION_REPRESENTATION ( #74, #154 ) ;
#21 = ORIENTED_EDGE ( 'NONE', *, *, #113, .T. ) ;
#22 = EDGE_LOOP ( 'NONE', ( #64, #42, #161, #173 ) ) ;
#23 = ORIENTED_EDGE ( 'NONE', *, *, #78, .F. ) ;
#24 = ADVANCED_FACE ( 'NONE', ( #41 ), #45, .T. ) ;
#25 = ORIENTED_EDGE ( 'NONE', *, *, #78, .T. ) ;
#26 = EDGE_LOOP ( 'NONE', ( #79, #119, #28, #209 ) ) ;
#27 = CONICAL_SURFACE ( 'NONE', #156, 12.50000000000000000, 0.7853981633974482790 ) ;
#28 = ORIENTED_EDGE ( 'NONE', *, *, #105, .T. ) ;
#29 = ADVANCED_FACE ( 'NONE', ( #123 ), #114, .T. ) ;
#30 = AXIS2_PLACEMENT_3D ( 'NONE', #125, #158, #144 ) ;
#31 = CARTESIAN_POINT ( 'NONE',  ( 12.29999999999999893, 1.518562030942717967E-15, 1.000000000000000000 ) ) ;
#32 = FACE_OUTER_BOUND ( 'NONE', #22, .T. ) ;
#33 =( LENGTH_UNIT ( ) NAMED_UNIT ( * ) SI_UNIT ( .MILLI., .METRE. ) );
#34 = CARTESIAN_POINT ( 'NONE',  ( -12.29999999999999893, 0.000000000000000000, 1.000000000000000000 ) ) ;
#35 = CARTESIAN_POINT ( 'NONE',  ( -12.29999999999999893, 0.000000000000000000, 1.000000000000000000 ) ) ;
#36 = ORIENTED_EDGE ( 'NONE', *, *, #3, .F. ) ;
#37 =( NAMED_UNIT ( * ) PLANE_ANGLE_UNIT ( ) SI_UNIT ( $, .RADIAN. ) );
#38 = ORIENTED_EDGE ( 'NONE', *, *, #147, .T. ) ;
#39 = ORIENTED_EDGE ( 'NONE', *, *, #93, .T. ) ;
#40 = ADVANCED_FACE ( 'NONE', ( #231 ), #9, .F. ) ;
#41 = FACE_OUTER_BOUND ( 'NONE', #146, .T. ) ;
#42 = ORIENTED_EDGE ( 'NONE', *, *, #147, .F. ) ;
#43 = ORIENTED_EDGE ( 'NONE', *, *, #84, .F. ) ;
#44 = CARTESIAN_POINT ( 'NONE',  ( 0.000000000000000000, 0.000000000000000000, 0.000000000000000000 ) ) ;
#45 = PLANE ( 'NONE',  #30 ) ;
#46 = CARTESIAN_POINT ( 'NONE',  ( 12.29999999999999893, 1.506315562951244216E-15, 1.000000000000000000 ) ) ;
#47 = CARTESIAN_POINT ( 'NONE',  ( 0.000000000000000000, 0.000000000000000000, 1.000000000000000000 ) ) ;
#48 = PRODUCT_RELATED_PRODUCT_CATEGORY ( 'part', '', ( #191 ) ) ;
#49 = CARTESIAN_POINT ( 'NONE',  ( 0.000000000000000000, 0.000000000000000000, 1.000000000000000000 ) ) ;
#50 = DIRECTION ( 'NONE',  ( -0.7071067811865566766, 0.000000000000000000, -0.7071067811865383579 ) ) ;
#51 =( NAMED_UNIT ( * ) SI_UNIT ( $, .STERADIAN. ) SOLID_ANGLE_UNIT ( ) );
#52 = EDGE_CURVE ( 'NONE', #116, #207, #60, .T. ) ;
#53 = STYLED_ITEM ( 'NONE', ( #55 ), #154 ) ;
#54 = ORIENTED_EDGE ( 'NONE', *, *, #105, .F. ) ;
#55 = PRESENTATION_STYLE_ASSIGNMENT (( #75 ) ) ;
#56 = PRODUCT_CONTEXT ( 'NONE', #95, 'mechanical' ) ;
#57 = ORIENTED_EDGE ( 'NONE', *, *, #59, .T. ) ;
#58 = CONICAL_SURFACE ( 'NONE', #176, 12.29999999999999893, 0.7853981633974612686 ) ;
#59 = EDGE_CURVE ( 'NONE', #160, #138, #141, .T. ) ;
#60 = CIRCLE ( 'NONE', #208, 12.30000000000000249 ) ;
#61 = CARTESIAN_POINT ( 'NONE',  ( -12.50000000000000000, 1.530808498934191521E-15, 0.1999999999999987899 ) ) ;
#62 = LINE ( 'NONE', #217, #2 ) ;
#63 = UNCERTAINTY_MEASURE_WITH_UNIT (LENGTH_MEASURE( 1.000000000000000082E-05 ), #210, 'distance_accuracy_value', 'NONE');
#64 = ORIENTED_EDGE ( 'NONE', *, *, #142, .F. ) ;
#65 = ORIENTED_EDGE ( 'NONE', *, *, #187, .F. ) ;
#66 = ORIENTED_EDGE ( 'NONE', *, *, #52, .T. ) ;
#67 = DIRECTION ( 'NONE',  ( -1.000000000000000000, 0.000000000000000000, 0.000000000000000000 ) ) ;
#68 = CIRCLE ( 'NONE', #89, 12.50000000000000000 ) ;
#69 = AXIS2_PLACEMENT_3D ( 'NONE', #8, #216, #81 ) ;
#70 = DIRECTION ( 'NONE',  ( 1.000000000000000000, 0.000000000000000000, 0.000000000000000000 ) ) ;
#71 = DIRECTION ( 'NONE',  ( 0.000000000000000000, 0.000000000000000000, 1.000000000000000000 ) ) ;
#72 =( LENGTH_UNIT ( ) NAMED_UNIT ( * ) SI_UNIT ( .MILLI., .METRE. ) );
#73 = VERTEX_POINT ( 'NONE', #233 ) ;
#74 = PRODUCT_DEFINITION_SHAPE ( 'NONE', 'NONE',  #17 ) ;
#75 = SURFACE_STYLE_USAGE ( .BOTH. , #171 ) ;
#76 = PRESENTATION_LAYER_ASSIGNMENT (  '', '', ( #53 ) ) ;
#77 = CIRCLE ( 'NONE', #139, 12.29999999999999893 ) ;
#78 = EDGE_CURVE ( 'NONE', #207, #116, #211, .T. ) ;
#79 = ORIENTED_EDGE ( 'NONE', *, *, #93, .F. ) ;
#80 = DIRECTION ( 'NONE',  ( 1.000000000000000000, 0.000000000000000000, 0.000000000000000000 ) ) ;
#81 = DIRECTION ( 'NONE',  ( 1.000000000000000000, 0.000000000000000000, -0.000000000000000000 ) ) ;
#82 = DIRECTION ( 'NONE',  ( 0.000000000000000000, 0.000000000000000000, -1.000000000000000000 ) ) ;
#83 = DIRECTION ( 'NONE',  ( -0.000000000000000000, -0.000000000000000000, -1.000000000000000000 ) ) ;
#84 = EDGE_CURVE ( 'NONE', #215, #73, #106, .T. ) ;
#85 = DIRECTION ( 'NONE',  ( 0.000000000000000000, 0.000000000000000000, -1.000000000000000000 ) ) ;
#86 = SURFACE_SIDE_STYLE ('',( #151 ) ) ;
#87 = FILL_AREA_STYLE_COLOUR ( '', #227 ) ;
#88 = DIRECTION ( 'NONE',  ( 0.7071067811865566766, 8.659560562355045024E-17, -0.7071067811865383579 ) ) ;
#89 = AXIS2_PLACEMENT_3D ( 'NONE', #202, #85, #185 ) ;
#90 = PRODUCT_DEFINITION_CONTEXT ( 'detailed design', #203, 'design' ) ;
#91 = DIRECTION ( 'NONE',  ( -1.000000000000000000, 0.000000000000000000, 0.000000000000000000 ) ) ;
#92 = AXIS2_PLACEMENT_3D ( 'NONE', #98, #232, #175 ) ;
#93 = EDGE_CURVE ( 'NONE', #207, #73, #6, .T. ) ;
#94 = FILL_AREA_STYLE_COLOUR ( '', #174 ) ;
#95 = APPLICATION_CONTEXT ( 'automotive_design' ) ;
#96 = ADVANCED_FACE ( 'NONE', ( #214 ), #13, .T. ) ;
#97 = AXIS2_PLACEMENT_3D ( 'NONE', #134, #140, #155 ) ;
#98 = CARTESIAN_POINT ( 'NONE',  ( 0.000000000000000000, 0.000000000000000000, 0.1999999999999987899 ) ) ;
#99 = CYLINDRICAL_SURFACE ( 'NONE', #177, 12.50000000000000000 ) ;
#100 = ORIENTED_EDGE ( 'NONE', *, *, #228, .T. ) ;
#101 = ORIENTED_EDGE ( 'NONE', *, *, #213, .T. ) ;
#102 = CIRCLE ( 'NONE', #196, 12.50000000000000000 ) ;
#103 = UNCERTAINTY_MEASURE_WITH_UNIT (LENGTH_MEASURE( 1.000000000000000082E-05 ), #72, 'distance_accuracy_value', 'NONE');
#104 = DIRECTION ( 'NONE',  ( 1.000000000000000000, 0.000000000000000000, 0.000000000000000000 ) ) ;
#105 = EDGE_CURVE ( 'NONE', #116, #215, #164, .T. ) ;
#106 = CIRCLE ( 'NONE', #92, 12.50000000000000000 ) ;
#107 = LINE ( 'NONE', #35, #149 ) ;
#108 = DIRECTION ( 'NONE',  ( 1.000000000000000000, 0.000000000000000000, 0.000000000000000000 ) ) ;
#109 = DIRECTION ( 'NONE',  ( -0.000000000000000000, -0.000000000000000000, 1.000000000000000000 ) ) ;
#110 =( GEOMETRIC_REPRESENTATION_CONTEXT ( 3 ) GLOBAL_UNCERTAINTY_ASSIGNED_CONTEXT ( ( #103 ) ) GLOBAL_UNIT_ASSIGNED_CONTEXT ( ( #72, #111, #225 ) ) REPRESENTATION_CONTEXT ( 'NONE', 'WORKASPACE' ) );
#111 =( NAMED_UNIT ( * ) PLANE_ANGLE_UNIT ( ) SI_UNIT ( $, .RADIAN. ) );
#112 = CIRCLE ( 'NONE', #188, 12.29999999999999893 ) ;
#113 = EDGE_CURVE ( 'NONE', #235, #122, #112, .T. ) ;
#114 = CONICAL_SURFACE ( 'NONE', #7, 12.50000000000000000, 0.7853981633974482790 ) ;
#115 = FILL_AREA_STYLE ('',( #94 ) ) ;
#116 = VERTEX_POINT ( 'NONE', #186 ) ;
#117 = APPLICATION_PROTOCOL_DEFINITION ( 'draft international standard', 'automotive_design', 1998, #95 ) ;
#118 = EDGE_LOOP ( 'NONE', ( #5, #124, #234, #65 ) ) ;
#119 = ORIENTED_EDGE ( 'NONE', *, *, #52, .F. ) ;
#120 = CARTESIAN_POINT ( 'NONE',  ( 0.000000000000000000, 0.000000000000000000, 0.8000000000000029310 ) ) ;
#121 = PRODUCT_DEFINITION_FORMATION_WITH_SPECIFIED_SOURCE ( 'ÈÎºÎ', '', #191, .NOT_KNOWN. ) ;
#122 = VERTEX_POINT ( 'NONE', #34 ) ;
#123 = FACE_OUTER_BOUND ( 'NONE', #212, .T. ) ;
#124 = ORIENTED_EDGE ( 'NONE', *, *, #142, .T. ) ;
#125 = CARTESIAN_POINT ( 'NONE',  ( 0.000000000000000000, 0.000000000000000000, 1.000000000000000000 ) ) ;
#126 = STYLED_ITEM ( 'NONE', ( #184 ), #223 ) ;
#127 = PRESENTATION_LAYER_ASSIGNMENT (  '', '', ( #126 ) ) ;
#128 = DIRECTION ( 'NONE',  ( 1.000000000000000000, 0.000000000000000000, 0.000000000000000000 ) ) ;
#129 = ADVANCED_FACE ( 'NONE', ( #201 ), #219, .T. ) ;
#130 = LINE ( 'NONE', #46, #167 ) ;
#131 = CARTESIAN_POINT ( 'NONE',  ( 0.000000000000000000, 0.000000000000000000, 1.000000000000000000 ) ) ;
#132 = CARTESIAN_POINT ( 'NONE',  ( 0.000000000000000000, 0.000000000000000000, 0.1999999999999987899 ) ) ;
#133 = LINE ( 'NONE', #163, #236 ) ;
#134 = CARTESIAN_POINT ( 'NONE',  ( 0.000000000000000000, 0.000000000000000000, 0.000000000000000000 ) ) ;
#135 = ADVANCED_FACE ( 'NONE', ( #239 ), #27, .T. ) ;
#136 =( GEOMETRIC_REPRESENTATION_CONTEXT ( 3 ) GLOBAL_UNCERTAINTY_ASSIGNED_CONTEXT ( ( #63 ) ) GLOBAL_UNIT_ASSIGNED_CONTEXT ( ( #210, #37, #137 ) ) REPRESENTATION_CONTEXT ( 'NONE', 'WORKASPACE' ) );
#137 =( NAMED_UNIT ( * ) SI_UNIT ( $, .STERADIAN. ) SOLID_ANGLE_UNIT ( ) );
#138 = VERTEX_POINT ( 'NONE', #205 ) ;
#139 = AXIS2_PLACEMENT_3D ( 'NONE', #238, #71, #108 ) ;
#140 = DIRECTION ( 'NONE',  ( 0.000000000000000000, 0.000000000000000000, 1.000000000000000000 ) ) ;
#141 = CIRCLE ( 'NONE', #199, 12.50000000000000000 ) ;
#142 = EDGE_CURVE ( 'NONE', #235, #160, #130, .T. ) ;
#143 = DIRECTION ( 'NONE',  ( -0.7071067811865474617, 8.659560562354932858E-17, 0.7071067811865474617 ) ) ;
#144 = DIRECTION ( 'NONE',  ( 1.000000000000000000, 0.000000000000000000, -0.000000000000000000 ) ) ;
#145 = CARTESIAN_POINT ( 'NONE',  ( 0.000000000000000000, 0.000000000000000000, 1.000000000000000000 ) ) ;
#146 = EDGE_LOOP ( 'NONE', ( #38, #21 ) ) ;
#147 = EDGE_CURVE ( 'NONE', #122, #235, #77, .T. ) ;
#148 = CARTESIAN_POINT ( 'NONE',  ( 0.000000000000000000, 0.000000000000000000, 0.000000000000000000 ) ) ;
#149 = VECTOR ( 'NONE', #50, 1000.000000000000000 ) ;
#150 = DIRECTION ( 'NONE',  ( -0.000000000000000000, -0.000000000000000000, -1.000000000000000000 ) ) ;
#151 = SURFACE_STYLE_FILL_AREA ( #152 ) ;
#152 = FILL_AREA_STYLE ('',( #87 ) ) ;
#153 = SURFACE_STYLE_FILL_AREA ( #115 ) ;
#154 = ADVANCED_BREP_SHAPE_REPRESENTATION ( 'GNIF-070-4680-D25', ( #223, #97 ), #136 ) ;
#155 = DIRECTION ( 'NONE',  ( 1.000000000000000000, 0.000000000000000000, 0.000000000000000000 ) ) ;
#156 = AXIS2_PLACEMENT_3D ( 'NONE', #132, #218, #166 ) ;
#157 = ORIENTED_EDGE ( 'NONE', *, *, #3, .T. ) ;
#158 = DIRECTION ( 'NONE',  ( 0.000000000000000000, 0.000000000000000000, 1.000000000000000000 ) ) ;
#159 = DIRECTION ( 'NONE',  ( -0.000000000000000000, -0.000000000000000000, -1.000000000000000000 ) ) ;
#160 = VERTEX_POINT ( 'NONE', #237 ) ;
#161 = ORIENTED_EDGE ( 'NONE', *, *, #187, .T. ) ;
#162 =( GEOMETRIC_REPRESENTATION_CONTEXT ( 3 ) GLOBAL_UNCERTAINTY_ASSIGNED_CONTEXT ( ( #222 ) ) GLOBAL_UNIT_ASSIGNED_CONTEXT ( ( #33, #14, #51 ) ) REPRESENTATION_CONTEXT ( 'NONE', 'WORKASPACE' ) );
#163 = CARTESIAN_POINT ( 'NONE',  ( -12.50000000000000000, 0.000000000000000000, 1.000000000000000000 ) ) ;
#164 = LINE ( 'NONE', #220, #206 ) ;
#165 = SURFACE_STYLE_USAGE ( .BOTH. , #86 ) ;
#166 = DIRECTION ( 'NONE',  ( 1.000000000000000000, 0.000000000000000000, 0.000000000000000000 ) ) ;
#167 = VECTOR ( 'NONE', #88, 1000.000000000000000 ) ;
#168 = CARTESIAN_POINT ( 'NONE',  ( 0.000000000000000000, 0.000000000000000000, 0.1999999999999987899 ) ) ;
#169 = AXIS2_PLACEMENT_3D ( 'NONE', #44, #11, #192 ) ;
#170 = ADVANCED_FACE ( 'NONE', ( #32 ), #58, .T. ) ;
#171 = SURFACE_SIDE_STYLE ('',( #153 ) ) ;
#172 = ORIENTED_EDGE ( 'NONE', *, *, #84, .T. ) ;
#173 = ORIENTED_EDGE ( 'NONE', *, *, #59, .F. ) ;
#174 = COLOUR_RGB ( '',1.000000000000000000, 1.000000000000000000, 1.000000000000000000 ) ;
#175 = DIRECTION ( 'NONE',  ( 1.000000000000000000, 0.000000000000000000, 0.000000000000000000 ) ) ;
#176 = AXIS2_PLACEMENT_3D ( 'NONE', #131, #182, #91 ) ;
#177 = AXIS2_PLACEMENT_3D ( 'NONE', #145, #10, #178 ) ;
#178 = DIRECTION ( 'NONE',  ( -1.000000000000000000, 0.000000000000000000, 0.000000000000000000 ) ) ;
#179 = FACE_OUTER_BOUND ( 'NONE', #4, .T. ) ;
#180 = ORIENTED_EDGE ( 'NONE', *, *, #200, .T. ) ;
#181 = DIRECTION ( 'NONE',  ( 1.000000000000000000, 0.000000000000000000, 0.000000000000000000 ) ) ;
#182 = DIRECTION ( 'NONE',  ( 0.000000000000000000, 0.000000000000000000, -1.000000000000000000 ) ) ;
#183 = CARTESIAN_POINT ( 'NONE',  ( 12.50000000000000000, 1.530808498934191521E-15, 0.1999999999999987899 ) ) ;
#184 = PRESENTATION_STYLE_ASSIGNMENT (( #165 ) ) ;
#185 = DIRECTION ( 'NONE',  ( 1.000000000000000000, 0.000000000000000000, 0.000000000000000000 ) ) ;
#186 = CARTESIAN_POINT ( 'NONE',  ( 12.30000000000000249, 0.000000000000000000, 0.000000000000000000 ) ) ;
#187 = EDGE_CURVE ( 'NONE', #122, #138, #107, .T. ) ;
#188 = AXIS2_PLACEMENT_3D ( 'NONE', #16, #204, #128 ) ;
#189 = DIRECTION ( 'NONE',  ( -0.000000000000000000, -0.000000000000000000, -1.000000000000000000 ) ) ;
#190 = APPLICATION_PROTOCOL_DEFINITION ( 'draft international standard', 'automotive_design', 1998, #203 ) ;
#191 = PRODUCT ( 'GNIF-070-4680-D25', 'GNIF-070-4680-D25', '', ( #56 ) ) ;
#192 = DIRECTION ( 'NONE',  ( 1.000000000000000000, 0.000000000000000000, 0.000000000000000000 ) ) ;
#193 = EDGE_LOOP ( 'NONE', ( #36, #57, #100, #101 ) ) ;
#194 = CARTESIAN_POINT ( 'NONE',  ( 0.000000000000000000, 0.000000000000000000, 0.1999999999999987899 ) ) ;
#195 = ORIENTED_EDGE ( 'NONE', *, *, #228, .F. ) ;
#196 = AXIS2_PLACEMENT_3D ( 'NONE', #168, #109, #70 ) ;
#197 = DIRECTION ( 'NONE',  ( -0.000000000000000000, -0.000000000000000000, 1.000000000000000000 ) ) ;
#198 = CARTESIAN_POINT ( 'NONE',  ( -12.30000000000000249, 1.518562030942718164E-15, 0.000000000000000000 ) ) ;
#199 = AXIS2_PLACEMENT_3D ( 'NONE', #120, #82, #80 ) ;
#200 = EDGE_CURVE ( 'NONE', #138, #160, #68, .T. ) ;
#201 = FACE_OUTER_BOUND ( 'NONE', #118, .T. ) ;
#202 = CARTESIAN_POINT ( 'NONE',  ( 0.000000000000000000, 0.000000000000000000, 0.8000000000000029310 ) ) ;
#203 = APPLICATION_CONTEXT ( 'automotive_design' ) ;
#204 = DIRECTION ( 'NONE',  ( 0.000000000000000000, 0.000000000000000000, 1.000000000000000000 ) ) ;
#205 = CARTESIAN_POINT ( 'NONE',  ( -12.50000000000000000, 0.000000000000000000, 0.8000000000000029310 ) ) ;
#206 = VECTOR ( 'NONE', #15, 1000.000000000000114 ) ;
#207 = VERTEX_POINT ( 'NONE', #198 ) ;
#208 = AXIS2_PLACEMENT_3D ( 'NONE', #148, #159, #181 ) ;
#209 = ORIENTED_EDGE ( 'NONE', *, *, #213, .F. ) ;
#210 =( LENGTH_UNIT ( ) NAMED_UNIT ( * ) SI_UNIT ( .MILLI., .METRE. ) );
#211 = CIRCLE ( 'NONE', #169, 12.30000000000000249 ) ;
#212 = EDGE_LOOP ( 'NONE', ( #23, #39, #43, #54 ) ) ;
#213 = EDGE_CURVE ( 'NONE', #73, #215, #102, .T. ) ;
#214 = FACE_OUTER_BOUND ( 'NONE', #193, .T. ) ;
#215 = VERTEX_POINT ( 'NONE', #183 ) ;
#216 = DIRECTION ( 'NONE',  ( 0.000000000000000000, 0.000000000000000000, 1.000000000000000000 ) ) ;
#217 = CARTESIAN_POINT ( 'NONE',  ( 12.50000000000000000, 1.530808498934191521E-15, 1.000000000000000000 ) ) ;
#218 = DIRECTION ( 'NONE',  ( -0.000000000000000000, -0.000000000000000000, 1.000000000000000000 ) ) ;
#219 = CONICAL_SURFACE ( 'NONE', #240, 12.29999999999999893, 0.7853981633974612686 ) ;
#220 = CARTESIAN_POINT ( 'NONE',  ( 12.50000000000000000, 0.000000000000000000, 0.1999999999999987899 ) ) ;
#221 = DIRECTION ( 'NONE',  ( -1.000000000000000000, 0.000000000000000000, 0.000000000000000000 ) ) ;
#222 = UNCERTAINTY_MEASURE_WITH_UNIT (LENGTH_MEASURE( 1.000000000000000082E-05 ), #33, 'distance_accuracy_value', 'NONE');
#223 = MANIFOLD_SOLID_BREP ( 'µ¹½Ç1', #19 ) ;
#224 = MECHANICAL_DESIGN_GEOMETRIC_PRESENTATION_REPRESENTATION (  '', ( #53 ), #110 ) ;
#225 =( NAMED_UNIT ( * ) SI_UNIT ( $, .STERADIAN. ) SOLID_ANGLE_UNIT ( ) );
#226 = EDGE_LOOP ( 'NONE', ( #66, #25 ) ) ;
#227 = COLOUR_RGB ( '',1.000000000000000000, 1.000000000000000000, 1.000000000000000000 ) ;
#228 = EDGE_CURVE ( 'NONE', #138, #73, #133, .T. ) ;
#229 = MECHANICAL_DESIGN_GEOMETRIC_PRESENTATION_REPRESENTATION (  '', ( #126 ), #162 ) ;
#230 = VECTOR ( 'NONE', #143, 1000.000000000000114 ) ;
#231 = FACE_OUTER_BOUND ( 'NONE', #226, .T. ) ;
#232 = DIRECTION ( 'NONE',  ( -0.000000000000000000, -0.000000000000000000, 1.000000000000000000 ) ) ;
#233 = CARTESIAN_POINT ( 'NONE',  ( -12.50000000000000000, 0.000000000000000000, 0.1999999999999987899 ) ) ;
#234 = ORIENTED_EDGE ( 'NONE', *, *, #200, .F. ) ;
#235 = VERTEX_POINT ( 'NONE', #31 ) ;
#236 = VECTOR ( 'NONE', #189, 1000.000000000000000 ) ;
#237 = CARTESIAN_POINT ( 'NONE',  ( 12.50000000000000000, 1.530808498934191521E-15, 0.8000000000000029310 ) ) ;
#238 = CARTESIAN_POINT ( 'NONE',  ( 0.000000000000000000, 0.000000000000000000, 1.000000000000000000 ) ) ;
#239 = FACE_OUTER_BOUND ( 'NONE', #26, .T. ) ;
#240 = AXIS2_PLACEMENT_3D ( 'NONE', #47, #1, #221 ) ;
ENDSEC;
END-ISO-10303-21;
