ISO-10303-21;
HEADER;
FILE_DESCRIPTION (( 'STEP AP214' ),
    '1' );
FILE_NAME ('GNIF-250-6250-D10.STEP',
    '2024-07-19T14:45:29',
    ( '' ),
    ( '' ),
    'SwSTEP 2.0',
    'SolidWorks 2022',
    '' );
FILE_SCHEMA (( 'AUTOMOTIVE_DESIGN' ));
ENDSEC;

DATA;
#1 = CARTESIAN_POINT ( 'NONE',  ( 5.000000000000000000, 6.123233995736766282E-16, 0.1999999999999996503 ) ) ;
#2 = CARTESIAN_POINT ( 'NONE',  ( 0.000000000000000000, 0.000000000000000000, 0.1999999999999996503 ) ) ;
#3 = VERTEX_POINT ( 'NONE', #158 ) ;
#4 = VECTOR ( 'NONE', #47, 1000.000000000000114 ) ;
#5 = FACE_OUTER_BOUND ( 'NONE', #38, .T. ) ;
#6 = PRODUCT_DEFINITION_CONTEXT ( 'detailed design', #92, 'design' ) ;
#7 = CARTESIAN_POINT ( 'NONE',  ( 0.000000000000000000, 0.000000000000000000, 0.8000000000000012657 ) ) ;
#8 = EDGE_CURVE ( 'NONE', #237, #3, #152, .T. ) ;
#9 = CARTESIAN_POINT ( 'NONE',  ( 0.000000000000000000, 0.000000000000000000, 0.000000000000000000 ) ) ;
#10 = AXIS2_PLACEMENT_3D ( 'NONE', #9, #72, #231 ) ;
#11 = LINE ( 'NONE', #147, #203 ) ;
#12 = ORIENTED_EDGE ( 'NONE', *, *, #64, .F. ) ;
#13 = CARTESIAN_POINT ( 'NONE',  ( 4.800000000000002487, 6.000769315822031726E-16, 1.000000000000000000 ) ) ;
#14 = ADVANCED_FACE ( 'NONE', ( #133 ), #186, .T. ) ;
#15 = ORIENTED_EDGE ( 'NONE', *, *, #180, .T. ) ;
#16 = DIRECTION ( 'NONE',  ( 0.000000000000000000, 0.000000000000000000, 1.000000000000000000 ) ) ;
#17 = VERTEX_POINT ( 'NONE', #1 ) ;
#18 = ORIENTED_EDGE ( 'NONE', *, *, #110, .T. ) ;
#19 = CONICAL_SURFACE ( 'NONE', #130, 5.000000000000000000, 0.7853981633974503884 ) ;
#20 = ORIENTED_EDGE ( 'NONE', *, *, #110, .F. ) ;
#21 = PRODUCT_DEFINITION ( 'Î´Öª', '', #187, #6 ) ;
#22 = CARTESIAN_POINT ( 'NONE',  ( 0.000000000000000000, 0.000000000000000000, 1.000000000000000000 ) ) ;
#23 = ORIENTED_EDGE ( 'NONE', *, *, #55, .T. ) ;
#24 = ORIENTED_EDGE ( 'NONE', *, *, #127, .T. ) ;
#25 = CYLINDRICAL_SURFACE ( 'NONE', #40, 5.000000000000000000 ) ;
#26 = VECTOR ( 'NONE', #36, 1000.000000000000114 ) ;
#27 = DIRECTION ( 'NONE',  ( -1.000000000000000000, 0.000000000000000000, 0.000000000000000000 ) ) ;
#28 = ADVANCED_FACE ( 'NONE', ( #41 ), #101, .T. ) ;
#29 = APPLICATION_CONTEXT ( 'automotive_design' ) ;
#30 =( NAMED_UNIT ( * ) SI_UNIT ( $, .STERADIAN. ) SOLID_ANGLE_UNIT ( ) );
#31 = PRODUCT_RELATED_PRODUCT_CATEGORY ( 'part', '', ( #111 ) ) ;
#32 =( NAMED_UNIT ( * ) PLANE_ANGLE_UNIT ( ) SI_UNIT ( $, .RADIAN. ) );
#33 = VERTEX_POINT ( 'NONE', #135 ) ;
#34 = AXIS2_PLACEMENT_3D ( 'NONE', #143, #215, #216 ) ;
#35 = DIRECTION ( 'NONE',  ( 1.000000000000000000, 0.000000000000000000, 0.000000000000000000 ) ) ;
#36 = DIRECTION ( 'NONE',  ( -0.7071067811865460184, 0.000000000000000000, -0.7071067811865489050 ) ) ;
#37 = EDGE_CURVE ( 'NONE', #97, #17, #211, .T. ) ;
#38 = EDGE_LOOP ( 'NONE', ( #238, #225, #201, #44 ) ) ;
#39 =( NAMED_UNIT ( * ) SI_UNIT ( $, .STERADIAN. ) SOLID_ANGLE_UNIT ( ) );
#40 = AXIS2_PLACEMENT_3D ( 'NONE', #90, #194, #27 ) ;
#41 = FACE_OUTER_BOUND ( 'NONE', #99, .T. ) ;
#42 = LINE ( 'NONE', #118, #113 ) ;
#43 = DIRECTION ( 'NONE',  ( 0.000000000000000000, 0.000000000000000000, -1.000000000000000000 ) ) ;
#44 = ORIENTED_EDGE ( 'NONE', *, *, #55, .F. ) ;
#45 = CARTESIAN_POINT ( 'NONE',  ( 0.000000000000000000, 0.000000000000000000, 0.1999999999999996503 ) ) ;
#46 = CIRCLE ( 'NONE', #34, 4.800000000000002487 ) ;
#47 = DIRECTION ( 'NONE',  ( 0.7071067811865460184, 8.659560562354913137E-17, -0.7071067811865489050 ) ) ;
#48 = VECTOR ( 'NONE', #223, 1000.000000000000000 ) ;
#49 = CARTESIAN_POINT ( 'NONE',  ( 0.000000000000000000, 0.000000000000000000, 1.000000000000000000 ) ) ;
#50 = DIRECTION ( 'NONE',  ( 1.000000000000000000, 0.000000000000000000, 0.000000000000000000 ) ) ;
#51 = CARTESIAN_POINT ( 'NONE',  ( 5.000000000000000000, 0.000000000000000000, 0.1999999999999996503 ) ) ;
#52 = CONICAL_SURFACE ( 'NONE', #140, 4.800000000000002487, 0.7853981633974461696 ) ;
#53 = DIRECTION ( 'NONE',  ( -1.000000000000000000, 0.000000000000000000, 0.000000000000000000 ) ) ;
#54 = ORIENTED_EDGE ( 'NONE', *, *, #64, .T. ) ;
#55 = EDGE_CURVE ( 'NONE', #184, #97, #42, .T. ) ;
#56 = CARTESIAN_POINT ( 'NONE',  ( 5.000000000000000000, 6.123233995736766282E-16, 1.000000000000000000 ) ) ;
#57 = LINE ( 'NONE', #51, #48 ) ;
#58 = ORIENTED_EDGE ( 'NONE', *, *, #37, .F. ) ;
#59 = DIRECTION ( 'NONE',  ( 1.000000000000000000, 0.000000000000000000, 0.000000000000000000 ) ) ;
#60 = MECHANICAL_DESIGN_GEOMETRIC_PRESENTATION_REPRESENTATION (  '', ( #134 ), #81 ) ;
#61 = DIRECTION ( 'NONE',  ( 0.000000000000000000, 0.000000000000000000, 1.000000000000000000 ) ) ;
#62 = DIRECTION ( 'NONE',  ( -0.000000000000000000, -0.000000000000000000, -1.000000000000000000 ) ) ;
#63 = FACE_OUTER_BOUND ( 'NONE', #165, .T. ) ;
#64 = EDGE_CURVE ( 'NONE', #33, #183, #166, .T. ) ;
#65 = DIRECTION ( 'NONE',  ( 1.000000000000000000, 0.000000000000000000, 0.000000000000000000 ) ) ;
#66 = SURFACE_STYLE_USAGE ( .BOTH. , #141 ) ;
#67 = FILL_AREA_STYLE ('',( #71 ) ) ;
#68 = AXIS2_PLACEMENT_3D ( 'NONE', #185, #202, #59 ) ;
#69 = AXIS2_PLACEMENT_3D ( 'NONE', #78, #16, #50 ) ;
#70 = ADVANCED_FACE ( 'NONE', ( #103 ), #52, .T. ) ;
#71 = FILL_AREA_STYLE_COLOUR ( '', #95 ) ;
#72 = DIRECTION ( 'NONE',  ( -0.000000000000000000, -0.000000000000000000, -1.000000000000000000 ) ) ;
#73 = PRODUCT_CONTEXT ( 'NONE', #29, 'mechanical' ) ;
#74 = AXIS2_PLACEMENT_3D ( 'NONE', #7, #200, #35 ) ;
#75 = SURFACE_STYLE_FILL_AREA ( #114 ) ;
#76 = EDGE_LOOP ( 'NONE', ( #12, #112, #98, #164 ) ) ;
#77 =( GEOMETRIC_REPRESENTATION_CONTEXT ( 3 ) GLOBAL_UNCERTAINTY_ASSIGNED_CONTEXT ( ( #125 ) ) GLOBAL_UNIT_ASSIGNED_CONTEXT ( ( #151, #146, #39 ) ) REPRESENTATION_CONTEXT ( 'NONE', 'WORKASPACE' ) );
#78 = CARTESIAN_POINT ( 'NONE',  ( 0.000000000000000000, 0.000000000000000000, 0.000000000000000000 ) ) ;
#79 = SURFACE_STYLE_USAGE ( .BOTH. , #236 ) ;
#80 = ORIENTED_EDGE ( 'NONE', *, *, #189, .F. ) ;
#81 =( GEOMETRIC_REPRESENTATION_CONTEXT ( 3 ) GLOBAL_UNCERTAINTY_ASSIGNED_CONTEXT ( ( #214 ) ) GLOBAL_UNIT_ASSIGNED_CONTEXT ( ( #195, #108, #30 ) ) REPRESENTATION_CONTEXT ( 'NONE', 'WORKASPACE' ) );
#82 = DIRECTION ( 'NONE',  ( 1.000000000000000000, 0.000000000000000000, -0.000000000000000000 ) ) ;
#83 = ORIENTED_EDGE ( 'NONE', *, *, #217, .F. ) ;
#84 = ADVANCED_FACE ( 'NONE', ( #63 ), #137, .F. ) ;
#85 = DIRECTION ( 'NONE',  ( -0.000000000000000000, -0.000000000000000000, 1.000000000000000000 ) ) ;
#86 = ORIENTED_EDGE ( 'NONE', *, *, #8, .T. ) ;
#87 = AXIS2_PLACEMENT_3D ( 'NONE', #49, #88, #196 ) ;
#88 = DIRECTION ( 'NONE',  ( 0.000000000000000000, 0.000000000000000000, -1.000000000000000000 ) ) ;
#89 = ADVANCED_FACE ( 'NONE', ( #190 ), #19, .T. ) ;
#90 = CARTESIAN_POINT ( 'NONE',  ( 0.000000000000000000, 0.000000000000000000, 1.000000000000000000 ) ) ;
#91 = AXIS2_PLACEMENT_3D ( 'NONE', #170, #62, #156 ) ;
#92 = APPLICATION_CONTEXT ( 'automotive_design' ) ;
#93 = CIRCLE ( 'NONE', #160, 5.000000000000000000 ) ;
#94 =( NAMED_UNIT ( * ) SI_UNIT ( $, .STERADIAN. ) SOLID_ANGLE_UNIT ( ) );
#95 = COLOUR_RGB ( '',1.000000000000000000, 1.000000000000000000, 1.000000000000000000 ) ;
#96 = APPLICATION_PROTOCOL_DEFINITION ( 'draft international standard', 'automotive_design', 1998, #29 ) ;
#97 = VERTEX_POINT ( 'NONE', #138 ) ;
#98 = ORIENTED_EDGE ( 'NONE', *, *, #171, .F. ) ;
#99 = EDGE_LOOP ( 'NONE', ( #24, #86 ) ) ;
#100 = CLOSED_SHELL ( 'NONE', ( #14, #142, #150, #227, #28, #84, #70, #89 ) ) ;
#101 = PLANE ( 'NONE',  #122 ) ;
#102 = ORIENTED_EDGE ( 'NONE', *, *, #119, .T. ) ;
#103 = FACE_OUTER_BOUND ( 'NONE', #148, .T. ) ;
#104 = ORIENTED_EDGE ( 'NONE', *, *, #217, .T. ) ;
#105 = CARTESIAN_POINT ( 'NONE',  ( 4.800000000000002487, 5.878304635907297169E-16, 1.000000000000000000 ) ) ;
#106 = VECTOR ( 'NONE', #220, 1000.000000000000000 ) ;
#107 = UNCERTAINTY_MEASURE_WITH_UNIT (LENGTH_MEASURE( 1.000000000000000082E-05 ), #222, 'distance_accuracy_value', 'NONE');
#108 =( NAMED_UNIT ( * ) PLANE_ANGLE_UNIT ( ) SI_UNIT ( $, .RADIAN. ) );
#109 = COLOUR_RGB ( '',1.000000000000000000, 1.000000000000000000, 1.000000000000000000 ) ;
#110 = EDGE_CURVE ( 'NONE', #153, #184, #93, .T. ) ;
#111 = PRODUCT ( 'GNIF-250-6250-D10', 'GNIF-250-6250-D10', '', ( #73 ) ) ;
#112 = ORIENTED_EDGE ( 'NONE', *, *, #206, .T. ) ;
#113 = VECTOR ( 'NONE', #226, 1000.000000000000000 ) ;
#114 = FILL_AREA_STYLE ('',( #234 ) ) ;
#115 = LINE ( 'NONE', #132, #26 ) ;
#116 = ORIENTED_EDGE ( 'NONE', *, *, #235, .F. ) ;
#117 = ORIENTED_EDGE ( 'NONE', *, *, #232, .T. ) ;
#118 = CARTESIAN_POINT ( 'NONE',  ( -5.000000000000000000, 0.000000000000000000, 1.000000000000000000 ) ) ;
#119 = EDGE_CURVE ( 'NONE', #183, #33, #224, .T. ) ;
#120 = DIRECTION ( 'NONE',  ( 1.000000000000000000, 0.000000000000000000, -0.000000000000000000 ) ) ;
#121 = CARTESIAN_POINT ( 'NONE',  ( 0.000000000000000000, 0.000000000000000000, 0.8000000000000012657 ) ) ;
#122 = AXIS2_PLACEMENT_3D ( 'NONE', #239, #61, #82 ) ;
#123 = LINE ( 'NONE', #105, #4 ) ;
#124 = CARTESIAN_POINT ( 'NONE',  ( 4.799999999999999822, 0.000000000000000000, 0.000000000000000000 ) ) ;
#125 = UNCERTAINTY_MEASURE_WITH_UNIT (LENGTH_MEASURE( 1.000000000000000082E-05 ), #151, 'distance_accuracy_value', 'NONE');
#126 = SURFACE_STYLE_FILL_AREA ( #67 ) ;
#127 = EDGE_CURVE ( 'NONE', #3, #237, #46, .T. ) ;
#128 = FACE_OUTER_BOUND ( 'NONE', #188, .T. ) ;
#129 = EDGE_LOOP ( 'NONE', ( #116, #18, #23, #191 ) ) ;
#130 = AXIS2_PLACEMENT_3D ( 'NONE', #2, #85, #65 ) ;
#131 = MECHANICAL_DESIGN_GEOMETRIC_PRESENTATION_REPRESENTATION (  '', ( #212 ), #77 ) ;
#132 = CARTESIAN_POINT ( 'NONE',  ( -4.800000000000002487, 0.000000000000000000, 1.000000000000000000 ) ) ;
#133 = FACE_OUTER_BOUND ( 'NONE', #76, .T. ) ;
#134 = STYLED_ITEM ( 'NONE', ( #213 ), #162 ) ;
#135 = CARTESIAN_POINT ( 'NONE',  ( -4.799999999999999822, 6.000769315822029754E-16, 0.000000000000000000 ) ) ;
#136 = CARTESIAN_POINT ( 'NONE',  ( 0.000000000000000000, 0.000000000000000000, 1.000000000000000000 ) ) ;
#137 = PLANE ( 'NONE',  #192 ) ;
#138 = CARTESIAN_POINT ( 'NONE',  ( -5.000000000000000000, 0.000000000000000000, 0.1999999999999996503 ) ) ;
#139 = DIRECTION ( 'NONE',  ( -0.000000000000000000, -0.000000000000000000, 1.000000000000000000 ) ) ;
#140 = AXIS2_PLACEMENT_3D ( 'NONE', #136, #43, #228 ) ;
#141 = SURFACE_SIDE_STYLE ('',( #126 ) ) ;
#142 = ADVANCED_FACE ( 'NONE', ( #128 ), #219, .T. ) ;
#143 = CARTESIAN_POINT ( 'NONE',  ( 0.000000000000000000, 0.000000000000000000, 1.000000000000000000 ) ) ;
#144 = APPLICATION_PROTOCOL_DEFINITION ( 'draft international standard', 'automotive_design', 1998, #92 ) ;
#145 = PRESENTATION_LAYER_ASSIGNMENT (  '', '', ( #134 ) ) ;
#146 =( NAMED_UNIT ( * ) PLANE_ANGLE_UNIT ( ) SI_UNIT ( $, .RADIAN. ) );
#147 = CARTESIAN_POINT ( 'NONE',  ( -5.000000000000000000, 6.123233995736765296E-16, 0.1999999999999996503 ) ) ;
#148 = EDGE_LOOP ( 'NONE', ( #159, #169, #104, #20 ) ) ;
#149 = DIRECTION ( 'NONE',  ( -0.7071067811865490160, 8.659560562354950115E-17, 0.7071067811865459074 ) ) ;
#150 = ADVANCED_FACE ( 'NONE', ( #5 ), #25, .T. ) ;
#151 =( LENGTH_UNIT ( ) NAMED_UNIT ( * ) SI_UNIT ( .MILLI., .METRE. ) );
#152 = CIRCLE ( 'NONE', #177, 4.800000000000002487 ) ;
#153 = VERTEX_POINT ( 'NONE', #193 ) ;
#154 = CIRCLE ( 'NONE', #173, 5.000000000000000000 ) ;
#155 = DIRECTION ( 'NONE',  ( 1.000000000000000000, 0.000000000000000000, 0.000000000000000000 ) ) ;
#156 = DIRECTION ( 'NONE',  ( 1.000000000000000000, 0.000000000000000000, 0.000000000000000000 ) ) ;
#157 = SHAPE_DEFINITION_REPRESENTATION ( #197, #210 ) ;
#158 = CARTESIAN_POINT ( 'NONE',  ( -4.800000000000002487, 0.000000000000000000, 1.000000000000000000 ) ) ;
#159 = ORIENTED_EDGE ( 'NONE', *, *, #180, .F. ) ;
#160 = AXIS2_PLACEMENT_3D ( 'NONE', #121, #230, #174 ) ;
#161 = AXIS2_PLACEMENT_3D ( 'NONE', #181, #182, #53 ) ;
#162 = MANIFOLD_SOLID_BREP ( 'µ¹½Ç1', #100 ) ;
#163 = PRESENTATION_STYLE_ASSIGNMENT (( #79 ) ) ;
#164 = ORIENTED_EDGE ( 'NONE', *, *, #232, .F. ) ;
#165 = EDGE_LOOP ( 'NONE', ( #102, #54 ) ) ;
#166 = CIRCLE ( 'NONE', #91, 4.799999999999999822 ) ;
#167 = PRESENTATION_LAYER_ASSIGNMENT (  '', '', ( #212 ) ) ;
#168 = ORIENTED_EDGE ( 'NONE', *, *, #119, .F. ) ;
#169 = ORIENTED_EDGE ( 'NONE', *, *, #127, .F. ) ;
#170 = CARTESIAN_POINT ( 'NONE',  ( 0.000000000000000000, 0.000000000000000000, 0.000000000000000000 ) ) ;
#171 = EDGE_CURVE ( 'NONE', #17, #97, #154, .T. ) ;
#172 = ORIENTED_EDGE ( 'NONE', *, *, #8, .F. ) ;
#173 = AXIS2_PLACEMENT_3D ( 'NONE', #218, #139, #209 ) ;
#174 = DIRECTION ( 'NONE',  ( 1.000000000000000000, 0.000000000000000000, 0.000000000000000000 ) ) ;
#175 = CARTESIAN_POINT ( 'NONE',  ( -5.000000000000000000, 0.000000000000000000, 0.8000000000000012657 ) ) ;
#176 =( GEOMETRIC_REPRESENTATION_CONTEXT ( 3 ) GLOBAL_UNCERTAINTY_ASSIGNED_CONTEXT ( ( #107 ) ) GLOBAL_UNIT_ASSIGNED_CONTEXT ( ( #222, #32, #94 ) ) REPRESENTATION_CONTEXT ( 'NONE', 'WORKASPACE' ) );
#177 = AXIS2_PLACEMENT_3D ( 'NONE', #22, #240, #229 ) ;
#178 = EDGE_LOOP ( 'NONE', ( #205, #168, #117, #58 ) ) ;
#179 = FACE_OUTER_BOUND ( 'NONE', #129, .T. ) ;
#180 = EDGE_CURVE ( 'NONE', #237, #153, #123, .T. ) ;
#181 = CARTESIAN_POINT ( 'NONE',  ( 0.000000000000000000, 0.000000000000000000, 1.000000000000000000 ) ) ;
#182 = DIRECTION ( 'NONE',  ( -0.000000000000000000, -0.000000000000000000, -1.000000000000000000 ) ) ;
#183 = VERTEX_POINT ( 'NONE', #124 ) ;
#184 = VERTEX_POINT ( 'NONE', #175 ) ;
#185 = CARTESIAN_POINT ( 'NONE',  ( 0.000000000000000000, 0.000000000000000000, 0.1999999999999996503 ) ) ;
#186 = CONICAL_SURFACE ( 'NONE', #68, 5.000000000000000000, 0.7853981633974503884 ) ;
#187 = PRODUCT_DEFINITION_FORMATION_WITH_SPECIFIED_SOURCE ( 'ÈÎºÎ', '', #111, .NOT_KNOWN. ) ;
#188 = EDGE_LOOP ( 'NONE', ( #172, #15, #80, #83 ) ) ;
#189 = EDGE_CURVE ( 'NONE', #184, #153, #233, .T. ) ;
#190 = FACE_OUTER_BOUND ( 'NONE', #178, .T. ) ;
#191 = ORIENTED_EDGE ( 'NONE', *, *, #37, .T. ) ;
#192 = AXIS2_PLACEMENT_3D ( 'NONE', #207, #208, #120 ) ;
#193 = CARTESIAN_POINT ( 'NONE',  ( 5.000000000000000000, 6.123233995736766282E-16, 0.8000000000000012657 ) ) ;
#194 = DIRECTION ( 'NONE',  ( -0.000000000000000000, -0.000000000000000000, -1.000000000000000000 ) ) ;
#195 =( LENGTH_UNIT ( ) NAMED_UNIT ( * ) SI_UNIT ( .MILLI., .METRE. ) );
#196 = DIRECTION ( 'NONE',  ( -1.000000000000000000, 0.000000000000000000, 0.000000000000000000 ) ) ;
#197 = PRODUCT_DEFINITION_SHAPE ( 'NONE', 'NONE',  #21 ) ;
#198 = AXIS2_PLACEMENT_3D ( 'NONE', #45, #204, #155 ) ;
#199 = LINE ( 'NONE', #56, #106 ) ;
#200 = DIRECTION ( 'NONE',  ( 0.000000000000000000, 0.000000000000000000, -1.000000000000000000 ) ) ;
#201 = ORIENTED_EDGE ( 'NONE', *, *, #171, .T. ) ;
#202 = DIRECTION ( 'NONE',  ( -0.000000000000000000, -0.000000000000000000, 1.000000000000000000 ) ) ;
#203 = VECTOR ( 'NONE', #149, 1000.000000000000000 ) ;
#204 = DIRECTION ( 'NONE',  ( -0.000000000000000000, -0.000000000000000000, 1.000000000000000000 ) ) ;
#205 = ORIENTED_EDGE ( 'NONE', *, *, #206, .F. ) ;
#206 = EDGE_CURVE ( 'NONE', #33, #97, #11, .T. ) ;
#207 = CARTESIAN_POINT ( 'NONE',  ( 0.000000000000000000, 0.000000000000000000, 0.000000000000000000 ) ) ;
#208 = DIRECTION ( 'NONE',  ( 0.000000000000000000, 0.000000000000000000, 1.000000000000000000 ) ) ;
#209 = DIRECTION ( 'NONE',  ( 1.000000000000000000, 0.000000000000000000, 0.000000000000000000 ) ) ;
#210 = ADVANCED_BREP_SHAPE_REPRESENTATION ( 'GNIF-250-6250-D10', ( #162, #69 ), #176 ) ;
#211 = CIRCLE ( 'NONE', #198, 5.000000000000000000 ) ;
#212 = STYLED_ITEM ( 'NONE', ( #163 ), #210 ) ;
#213 = PRESENTATION_STYLE_ASSIGNMENT (( #66 ) ) ;
#214 = UNCERTAINTY_MEASURE_WITH_UNIT (LENGTH_MEASURE( 1.000000000000000082E-05 ), #195, 'distance_accuracy_value', 'NONE');
#215 = DIRECTION ( 'NONE',  ( 0.000000000000000000, 0.000000000000000000, 1.000000000000000000 ) ) ;
#216 = DIRECTION ( 'NONE',  ( 1.000000000000000000, 0.000000000000000000, 0.000000000000000000 ) ) ;
#217 = EDGE_CURVE ( 'NONE', #3, #184, #115, .T. ) ;
#218 = CARTESIAN_POINT ( 'NONE',  ( 0.000000000000000000, 0.000000000000000000, 0.1999999999999996503 ) ) ;
#219 = CONICAL_SURFACE ( 'NONE', #87, 4.800000000000002487, 0.7853981633974461696 ) ;
#220 = DIRECTION ( 'NONE',  ( -0.000000000000000000, -0.000000000000000000, -1.000000000000000000 ) ) ;
#221 = CYLINDRICAL_SURFACE ( 'NONE', #161, 5.000000000000000000 ) ;
#222 =( LENGTH_UNIT ( ) NAMED_UNIT ( * ) SI_UNIT ( .MILLI., .METRE. ) );
#223 = DIRECTION ( 'NONE',  ( 0.7071067811865490160, 0.000000000000000000, 0.7071067811865459074 ) ) ;
#224 = CIRCLE ( 'NONE', #10, 4.799999999999999822 ) ;
#225 = ORIENTED_EDGE ( 'NONE', *, *, #235, .T. ) ;
#226 = DIRECTION ( 'NONE',  ( -0.000000000000000000, -0.000000000000000000, -1.000000000000000000 ) ) ;
#227 = ADVANCED_FACE ( 'NONE', ( #179 ), #221, .T. ) ;
#228 = DIRECTION ( 'NONE',  ( -1.000000000000000000, 0.000000000000000000, 0.000000000000000000 ) ) ;
#229 = DIRECTION ( 'NONE',  ( 1.000000000000000000, 0.000000000000000000, 0.000000000000000000 ) ) ;
#230 = DIRECTION ( 'NONE',  ( 0.000000000000000000, 0.000000000000000000, -1.000000000000000000 ) ) ;
#231 = DIRECTION ( 'NONE',  ( 1.000000000000000000, 0.000000000000000000, 0.000000000000000000 ) ) ;
#232 = EDGE_CURVE ( 'NONE', #183, #17, #57, .T. ) ;
#233 = CIRCLE ( 'NONE', #74, 5.000000000000000000 ) ;
#234 = FILL_AREA_STYLE_COLOUR ( '', #109 ) ;
#235 = EDGE_CURVE ( 'NONE', #153, #17, #199, .T. ) ;
#236 = SURFACE_SIDE_STYLE ('',( #75 ) ) ;
#237 = VERTEX_POINT ( 'NONE', #13 ) ;
#238 = ORIENTED_EDGE ( 'NONE', *, *, #189, .T. ) ;
#239 = CARTESIAN_POINT ( 'NONE',  ( 0.000000000000000000, 0.000000000000000000, 1.000000000000000000 ) ) ;
#240 = DIRECTION ( 'NONE',  ( 0.000000000000000000, 0.000000000000000000, 1.000000000000000000 ) ) ;
ENDSEC;
END-ISO-10303-21;
