ISO-10303-21;
HEADER;
FILE_DESCRIPTION (( 'STEP AP214' ),
    '1' );
FILE_NAME ('GNIF-420-7360-D10.STEP',
    '2024-07-19T14:47:24',
    ( '' ),
    ( '' ),
    'SwSTEP 2.0',
    'SolidWorks 2022',
    '' );
FILE_SCHEMA (( 'AUTOMOTIVE_DESIGN' ));
ENDSEC;

DATA;
#1 = EDGE_LOOP ( 'NONE', ( #219, #220, #105, #88 ) ) ;
#2 = EDGE_CURVE ( 'NONE', #171, #198, #144, .T. ) ;
#3 = MECHANICAL_DESIGN_GEOMETRIC_PRESENTATION_REPRESENTATION (  '', ( #190 ), #180 ) ;
#4 = EDGE_CURVE ( 'NONE', #198, #204, #38, .T. ) ;
#5 = AXIS2_PLACEMENT_3D ( 'NONE', #182, #65, #240 ) ;
#6 = CARTESIAN_POINT ( 'NONE',  ( 0.000000000000000000, 0.000000000000000000, 1.000000000000000000 ) ) ;
#7 = DIRECTION ( 'NONE',  ( 0.7071067811865490160, 0.000000000000000000, 0.7071067811865459074 ) ) ;
#8 = ADVANCED_FACE ( 'NONE', ( #116 ), #74, .T. ) ;
#9 = DIRECTION ( 'NONE',  ( 0.000000000000000000, 0.000000000000000000, 1.000000000000000000 ) ) ;
#10 = AXIS2_PLACEMENT_3D ( 'NONE', #229, #128, #145 ) ;
#11 = UNCERTAINTY_MEASURE_WITH_UNIT (LENGTH_MEASURE( 1.000000000000000082E-05 ), #69, 'distance_accuracy_value', 'NONE');
#12 = DIRECTION ( 'NONE',  ( 1.000000000000000000, 0.000000000000000000, 0.000000000000000000 ) ) ;
#13 = LINE ( 'NONE', #84, #96 ) ;
#14 = DIRECTION ( 'NONE',  ( -0.000000000000000000, -0.000000000000000000, -1.000000000000000000 ) ) ;
#15 = EDGE_LOOP ( 'NONE', ( #151, #184, #61, #131 ) ) ;
#16 = PRODUCT_DEFINITION ( 'Î´Öª', '', #95, #161 ) ;
#17 = ORIENTED_EDGE ( 'NONE', *, *, #159, .T. ) ;
#18 = VECTOR ( 'NONE', #46, 1000.000000000000000 ) ;
#19 =( NAMED_UNIT ( * ) PLANE_ANGLE_UNIT ( ) SI_UNIT ( $, .RADIAN. ) );
#20 = ORIENTED_EDGE ( 'NONE', *, *, #81, .T. ) ;
#21 = EDGE_CURVE ( 'NONE', #198, #171, #24, .T. ) ;
#22 = DIRECTION ( 'NONE',  ( 0.000000000000000000, 0.000000000000000000, -1.000000000000000000 ) ) ;
#23 = DIRECTION ( 'NONE',  ( -0.000000000000000000, -0.000000000000000000, 1.000000000000000000 ) ) ;
#24 = CIRCLE ( 'NONE', #89, 5.000000000000000000 ) ;
#25 = SURFACE_STYLE_USAGE ( .BOTH. , #118 ) ;
#26 = CARTESIAN_POINT ( 'NONE',  ( 4.800000000000002487, 6.000769315822031726E-16, 1.000000000000000000 ) ) ;
#27 = CARTESIAN_POINT ( 'NONE',  ( 0.000000000000000000, 0.000000000000000000, 1.000000000000000000 ) ) ;
#28 = CARTESIAN_POINT ( 'NONE',  ( 0.000000000000000000, 0.000000000000000000, 0.000000000000000000 ) ) ;
#29 = DIRECTION ( 'NONE',  ( -0.000000000000000000, -0.000000000000000000, -1.000000000000000000 ) ) ;
#30 = VERTEX_POINT ( 'NONE', #93 ) ;
#31 = ADVANCED_FACE ( 'NONE', ( #205 ), #79, .T. ) ;
#32 = ORIENTED_EDGE ( 'NONE', *, *, #149, .F. ) ;
#33 = ORIENTED_EDGE ( 'NONE', *, *, #90, .F. ) ;
#34 = FILL_AREA_STYLE ('',( #188 ) ) ;
#35 = PRESENTATION_STYLE_ASSIGNMENT (( #173 ) ) ;
#36 = AXIS2_PLACEMENT_3D ( 'NONE', #172, #222, #209 ) ;
#37 = ORIENTED_EDGE ( 'NONE', *, *, #230, .T. ) ;
#38 = LINE ( 'NONE', #137, #50 ) ;
#39 = STYLED_ITEM ( 'NONE', ( #35 ), #115 ) ;
#40 = CARTESIAN_POINT ( 'NONE',  ( 0.000000000000000000, 0.000000000000000000, 0.000000000000000000 ) ) ;
#41 = PLANE ( 'NONE',  #10 ) ;
#42 = CIRCLE ( 'NONE', #5, 4.800000000000002487 ) ;
#43 = CIRCLE ( 'NONE', #227, 4.799999999999999822 ) ;
#44 = FACE_OUTER_BOUND ( 'NONE', #201, .T. ) ;
#45 = ORIENTED_EDGE ( 'NONE', *, *, #21, .T. ) ;
#46 = DIRECTION ( 'NONE',  ( -0.7071067811865490160, 8.659560562354950115E-17, 0.7071067811865459074 ) ) ;
#47 = CIRCLE ( 'NONE', #196, 4.799999999999999822 ) ;
#48 = ORIENTED_EDGE ( 'NONE', *, *, #174, .T. ) ;
#49 = MANIFOLD_SOLID_BREP ( 'µ¹½Ç1', #169 ) ;
#50 = VECTOR ( 'NONE', #208, 1000.000000000000000 ) ;
#51 =( NAMED_UNIT ( * ) PLANE_ANGLE_UNIT ( ) SI_UNIT ( $, .RADIAN. ) );
#52 = DIRECTION ( 'NONE',  ( 1.000000000000000000, 0.000000000000000000, 0.000000000000000000 ) ) ;
#53 =( NAMED_UNIT ( * ) SI_UNIT ( $, .STERADIAN. ) SOLID_ANGLE_UNIT ( ) );
#54 = EDGE_CURVE ( 'NONE', #66, #198, #212, .T. ) ;
#55 = COLOUR_RGB ( '',1.000000000000000000, 1.000000000000000000, 1.000000000000000000 ) ;
#56 = DIRECTION ( 'NONE',  ( 1.000000000000000000, 0.000000000000000000, 0.000000000000000000 ) ) ;
#57 = FILL_AREA_STYLE ('',( #228 ) ) ;
#58 = DIRECTION ( 'NONE',  ( 1.000000000000000000, 0.000000000000000000, -0.000000000000000000 ) ) ;
#59 = DIRECTION ( 'NONE',  ( 1.000000000000000000, 0.000000000000000000, 0.000000000000000000 ) ) ;
#60 = CARTESIAN_POINT ( 'NONE',  ( 0.000000000000000000, 0.000000000000000000, 1.000000000000000000 ) ) ;
#61 = ORIENTED_EDGE ( 'NONE', *, *, #21, .F. ) ;
#62 = PRODUCT_DEFINITION_SHAPE ( 'NONE', 'NONE',  #16 ) ;
#63 = CARTESIAN_POINT ( 'NONE',  ( 5.000000000000000000, 6.123233995736766282E-16, 0.1999999999999996503 ) ) ;
#64 = ORIENTED_EDGE ( 'NONE', *, *, #71, .T. ) ;
#65 = DIRECTION ( 'NONE',  ( 0.000000000000000000, 0.000000000000000000, 1.000000000000000000 ) ) ;
#66 = VERTEX_POINT ( 'NONE', #157 ) ;
#67 = AXIS2_PLACEMENT_3D ( 'NONE', #27, #178, #58 ) ;
#68 = ORIENTED_EDGE ( 'NONE', *, *, #111, .T. ) ;
#69 =( LENGTH_UNIT ( ) NAMED_UNIT ( * ) SI_UNIT ( .MILLI., .METRE. ) );
#70 = CARTESIAN_POINT ( 'NONE',  ( 0.000000000000000000, 0.000000000000000000, 0.8000000000000012657 ) ) ;
#71 = EDGE_CURVE ( 'NONE', #168, #30, #43, .T. ) ;
#72 =( LENGTH_UNIT ( ) NAMED_UNIT ( * ) SI_UNIT ( .MILLI., .METRE. ) );
#73 = CARTESIAN_POINT ( 'NONE',  ( -5.000000000000000000, 0.000000000000000000, 0.1999999999999996503 ) ) ;
#74 = CONICAL_SURFACE ( 'NONE', #124, 5.000000000000000000, 0.7853981633974503884 ) ;
#75 = CIRCLE ( 'NONE', #114, 5.000000000000000000 ) ;
#76 = DIRECTION ( 'NONE',  ( 0.000000000000000000, 0.000000000000000000, -1.000000000000000000 ) ) ;
#77 = FACE_OUTER_BOUND ( 'NONE', #165, .T. ) ;
#78 = SHAPE_DEFINITION_REPRESENTATION ( #62, #115 ) ;
#79 = CONICAL_SURFACE ( 'NONE', #106, 4.800000000000002487, 0.7853981633974461696 ) ;
#80 = CARTESIAN_POINT ( 'NONE',  ( 0.000000000000000000, 0.000000000000000000, 0.1999999999999996503 ) ) ;
#81 = EDGE_CURVE ( 'NONE', #92, #66, #207, .T. ) ;
#82 = LINE ( 'NONE', #218, #18 ) ;
#83 = PRODUCT ( 'GNIF-420-7360-D10', 'GNIF-420-7360-D10', '', ( #234 ) ) ;
#84 = CARTESIAN_POINT ( 'NONE',  ( 5.000000000000000000, 6.123233995736766282E-16, 1.000000000000000000 ) ) ;
#85 = CARTESIAN_POINT ( 'NONE',  ( -4.799999999999999822, 6.000769315822029754E-16, 0.000000000000000000 ) ) ;
#86 = DIRECTION ( 'NONE',  ( 1.000000000000000000, 0.000000000000000000, 0.000000000000000000 ) ) ;
#87 = AXIS2_PLACEMENT_3D ( 'NONE', #80, #213, #12 ) ;
#88 = ORIENTED_EDGE ( 'NONE', *, *, #2, .F. ) ;
#89 = AXIS2_PLACEMENT_3D ( 'NONE', #70, #22, #135 ) ;
#90 = EDGE_CURVE ( 'NONE', #171, #142, #13, .T. ) ;
#91 = PRESENTATION_LAYER_ASSIGNMENT (  '', '', ( #39 ) ) ;
#92 = VERTEX_POINT ( 'NONE', #26 ) ;
#93 = CARTESIAN_POINT ( 'NONE',  ( 4.799999999999999822, 0.000000000000000000, 0.000000000000000000 ) ) ;
#94 = FACE_OUTER_BOUND ( 'NONE', #1, .T. ) ;
#95 = PRODUCT_DEFINITION_FORMATION_WITH_SPECIFIED_SOURCE ( 'ÈÎºÎ', '', #83, .NOT_KNOWN. ) ;
#96 = VECTOR ( 'NONE', #29, 1000.000000000000000 ) ;
#97 = PRESENTATION_STYLE_ASSIGNMENT (( #25 ) ) ;
#98 = ADVANCED_FACE ( 'NONE', ( #77 ), #41, .F. ) ;
#99 = DIRECTION ( 'NONE',  ( -1.000000000000000000, 0.000000000000000000, 0.000000000000000000 ) ) ;
#100 = PRODUCT_RELATED_PRODUCT_CATEGORY ( 'part', '', ( #83 ) ) ;
#101 = DIRECTION ( 'NONE',  ( 1.000000000000000000, 0.000000000000000000, 0.000000000000000000 ) ) ;
#102 = EDGE_LOOP ( 'NONE', ( #160, #127, #146, #233 ) ) ;
#103 = CARTESIAN_POINT ( 'NONE',  ( 5.000000000000000000, 6.123233995736766282E-16, 0.8000000000000012657 ) ) ;
#104 = ORIENTED_EDGE ( 'NONE', *, *, #2, .T. ) ;
#105 = ORIENTED_EDGE ( 'NONE', *, *, #54, .T. ) ;
#106 = AXIS2_PLACEMENT_3D ( 'NONE', #6, #76, #152 ) ;
#107 = AXIS2_PLACEMENT_3D ( 'NONE', #199, #236, #86 ) ;
#108 = ADVANCED_FACE ( 'NONE', ( #194 ), #235, .T. ) ;
#109 =( GEOMETRIC_REPRESENTATION_CONTEXT ( 3 ) GLOBAL_UNCERTAINTY_ASSIGNED_CONTEXT ( ( #11 ) ) GLOBAL_UNIT_ASSIGNED_CONTEXT ( ( #69, #19, #53 ) ) REPRESENTATION_CONTEXT ( 'NONE', 'WORKASPACE' ) );
#110 = ORIENTED_EDGE ( 'NONE', *, *, #133, .T. ) ;
#111 = EDGE_CURVE ( 'NONE', #30, #168, #47, .T. ) ;
#112 = ORIENTED_EDGE ( 'NONE', *, *, #71, .F. ) ;
#113 = SURFACE_SIDE_STYLE ('',( #223 ) ) ;
#114 = AXIS2_PLACEMENT_3D ( 'NONE', #224, #23, #117 ) ;
#115 = ADVANCED_BREP_SHAPE_REPRESENTATION ( 'GNIF-420-7360-D10', ( #49, #107 ), #109 ) ;
#116 = FACE_OUTER_BOUND ( 'NONE', #238, .T. ) ;
#117 = DIRECTION ( 'NONE',  ( 1.000000000000000000, 0.000000000000000000, 0.000000000000000000 ) ) ;
#118 = SURFACE_SIDE_STYLE ('',( #210 ) ) ;
#119 = APPLICATION_CONTEXT ( 'automotive_design' ) ;
#120 =( NAMED_UNIT ( * ) SI_UNIT ( $, .STERADIAN. ) SOLID_ANGLE_UNIT ( ) );
#121 = DIRECTION ( 'NONE',  ( -0.000000000000000000, -0.000000000000000000, -1.000000000000000000 ) ) ;
#122 = UNCERTAINTY_MEASURE_WITH_UNIT (LENGTH_MEASURE( 1.000000000000000082E-05 ), #221, 'distance_accuracy_value', 'NONE');
#123 = ADVANCED_FACE ( 'NONE', ( #44 ), #237, .T. ) ;
#124 = AXIS2_PLACEMENT_3D ( 'NONE', #186, #189, #52 ) ;
#125 = AXIS2_PLACEMENT_3D ( 'NONE', #140, #181, #162 ) ;
#126 =( NAMED_UNIT ( * ) SI_UNIT ( $, .STERADIAN. ) SOLID_ANGLE_UNIT ( ) );
#127 = ORIENTED_EDGE ( 'NONE', *, *, #111, .F. ) ;
#128 = DIRECTION ( 'NONE',  ( 0.000000000000000000, 0.000000000000000000, 1.000000000000000000 ) ) ;
#129 = CYLINDRICAL_SURFACE ( 'NONE', #185, 5.000000000000000000 ) ;
#130 = AXIS2_PLACEMENT_3D ( 'NONE', #175, #187, #56 ) ;
#131 = ORIENTED_EDGE ( 'NONE', *, *, #54, .F. ) ;
#132 = MECHANICAL_DESIGN_GEOMETRIC_PRESENTATION_REPRESENTATION (  '', ( #39 ), #177 ) ;
#133 = EDGE_CURVE ( 'NONE', #142, #204, #195, .T. ) ;
#134 = APPLICATION_PROTOCOL_DEFINITION ( 'draft international standard', 'automotive_design', 1998, #153 ) ;
#135 = DIRECTION ( 'NONE',  ( 1.000000000000000000, 0.000000000000000000, 0.000000000000000000 ) ) ;
#136 = CARTESIAN_POINT ( 'NONE',  ( 4.800000000000002487, 5.878304635907297169E-16, 1.000000000000000000 ) ) ;
#137 = CARTESIAN_POINT ( 'NONE',  ( -5.000000000000000000, 0.000000000000000000, 1.000000000000000000 ) ) ;
#138 = CARTESIAN_POINT ( 'NONE',  ( -5.000000000000000000, 0.000000000000000000, 0.8000000000000012657 ) ) ;
#139 = EDGE_LOOP ( 'NONE', ( #45, #148, #110, #215 ) ) ;
#140 = CARTESIAN_POINT ( 'NONE',  ( 0.000000000000000000, 0.000000000000000000, 0.1999999999999996503 ) ) ;
#141 = FACE_OUTER_BOUND ( 'NONE', #102, .T. ) ;
#142 = VERTEX_POINT ( 'NONE', #63 ) ;
#143 = VECTOR ( 'NONE', #206, 1000.000000000000114 ) ;
#144 = CIRCLE ( 'NONE', #130, 5.000000000000000000 ) ;
#145 = DIRECTION ( 'NONE',  ( 1.000000000000000000, 0.000000000000000000, -0.000000000000000000 ) ) ;
#146 = ORIENTED_EDGE ( 'NONE', *, *, #149, .T. ) ;
#147 = DIRECTION ( 'NONE',  ( -1.000000000000000000, 0.000000000000000000, 0.000000000000000000 ) ) ;
#148 = ORIENTED_EDGE ( 'NONE', *, *, #90, .T. ) ;
#149 = EDGE_CURVE ( 'NONE', #30, #142, #211, .T. ) ;
#150 = CONICAL_SURFACE ( 'NONE', #87, 5.000000000000000000, 0.7853981633974503884 ) ;
#151 = ORIENTED_EDGE ( 'NONE', *, *, #81, .F. ) ;
#152 = DIRECTION ( 'NONE',  ( -1.000000000000000000, 0.000000000000000000, 0.000000000000000000 ) ) ;
#153 = APPLICATION_CONTEXT ( 'automotive_design' ) ;
#154 = ADVANCED_FACE ( 'NONE', ( #141 ), #150, .T. ) ;
#155 = VECTOR ( 'NONE', #7, 1000.000000000000000 ) ;
#156 = CONICAL_SURFACE ( 'NONE', #36, 4.800000000000002487, 0.7853981633974461696 ) ;
#157 = CARTESIAN_POINT ( 'NONE',  ( -4.800000000000002487, 0.000000000000000000, 1.000000000000000000 ) ) ;
#158 = CARTESIAN_POINT ( 'NONE',  ( 0.000000000000000000, 0.000000000000000000, 1.000000000000000000 ) ) ;
#159 = EDGE_CURVE ( 'NONE', #168, #204, #82, .T. ) ;
#160 = ORIENTED_EDGE ( 'NONE', *, *, #159, .F. ) ;
#161 = PRODUCT_DEFINITION_CONTEXT ( 'detailed design', #119, 'design' ) ;
#162 = DIRECTION ( 'NONE',  ( 1.000000000000000000, 0.000000000000000000, 0.000000000000000000 ) ) ;
#163 = APPLICATION_PROTOCOL_DEFINITION ( 'draft international standard', 'automotive_design', 1998, #119 ) ;
#164 =( NAMED_UNIT ( * ) PLANE_ANGLE_UNIT ( ) SI_UNIT ( $, .RADIAN. ) );
#165 = EDGE_LOOP ( 'NONE', ( #68, #64 ) ) ;
#166 = FACE_OUTER_BOUND ( 'NONE', #139, .T. ) ;
#167 = ADVANCED_FACE ( 'NONE', ( #166 ), #129, .T. ) ;
#168 = VERTEX_POINT ( 'NONE', #85 ) ;
#169 = CLOSED_SHELL ( 'NONE', ( #8, #31, #167, #123, #108, #98, #217, #154 ) ) ;
#170 = VECTOR ( 'NONE', #197, 1000.000000000000114 ) ;
#171 = VERTEX_POINT ( 'NONE', #103 ) ;
#172 = CARTESIAN_POINT ( 'NONE',  ( 0.000000000000000000, 0.000000000000000000, 1.000000000000000000 ) ) ;
#173 = SURFACE_STYLE_USAGE ( .BOTH. , #113 ) ;
#174 = EDGE_CURVE ( 'NONE', #66, #92, #42, .T. ) ;
#175 = CARTESIAN_POINT ( 'NONE',  ( 0.000000000000000000, 0.000000000000000000, 0.8000000000000012657 ) ) ;
#176 = AXIS2_PLACEMENT_3D ( 'NONE', #60, #216, #99 ) ;
#177 =( GEOMETRIC_REPRESENTATION_CONTEXT ( 3 ) GLOBAL_UNCERTAINTY_ASSIGNED_CONTEXT ( ( #231 ) ) GLOBAL_UNIT_ASSIGNED_CONTEXT ( ( #72, #51, #120 ) ) REPRESENTATION_CONTEXT ( 'NONE', 'WORKASPACE' ) );
#178 = DIRECTION ( 'NONE',  ( 0.000000000000000000, 0.000000000000000000, 1.000000000000000000 ) ) ;
#179 = CARTESIAN_POINT ( 'NONE',  ( -4.800000000000002487, 0.000000000000000000, 1.000000000000000000 ) ) ;
#180 =( GEOMETRIC_REPRESENTATION_CONTEXT ( 3 ) GLOBAL_UNCERTAINTY_ASSIGNED_CONTEXT ( ( #122 ) ) GLOBAL_UNIT_ASSIGNED_CONTEXT ( ( #221, #164, #126 ) ) REPRESENTATION_CONTEXT ( 'NONE', 'WORKASPACE' ) );
#181 = DIRECTION ( 'NONE',  ( -0.000000000000000000, -0.000000000000000000, 1.000000000000000000 ) ) ;
#182 = CARTESIAN_POINT ( 'NONE',  ( 0.000000000000000000, 0.000000000000000000, 1.000000000000000000 ) ) ;
#183 = EDGE_CURVE ( 'NONE', #92, #171, #192, .T. ) ;
#184 = ORIENTED_EDGE ( 'NONE', *, *, #183, .T. ) ;
#185 = AXIS2_PLACEMENT_3D ( 'NONE', #200, #14, #147 ) ;
#186 = CARTESIAN_POINT ( 'NONE',  ( 0.000000000000000000, 0.000000000000000000, 0.1999999999999996503 ) ) ;
#187 = DIRECTION ( 'NONE',  ( 0.000000000000000000, 0.000000000000000000, -1.000000000000000000 ) ) ;
#188 = FILL_AREA_STYLE_COLOUR ( '', #225 ) ;
#189 = DIRECTION ( 'NONE',  ( -0.000000000000000000, -0.000000000000000000, 1.000000000000000000 ) ) ;
#190 = STYLED_ITEM ( 'NONE', ( #97 ), #49 ) ;
#191 = ORIENTED_EDGE ( 'NONE', *, *, #4, .T. ) ;
#192 = LINE ( 'NONE', #136, #143 ) ;
#193 = CARTESIAN_POINT ( 'NONE',  ( 5.000000000000000000, 0.000000000000000000, 0.1999999999999996503 ) ) ;
#194 = FACE_OUTER_BOUND ( 'NONE', #226, .T. ) ;
#195 = CIRCLE ( 'NONE', #125, 5.000000000000000000 ) ;
#196 = AXIS2_PLACEMENT_3D ( 'NONE', #40, #121, #59 ) ;
#197 = DIRECTION ( 'NONE',  ( -0.7071067811865460184, 0.000000000000000000, -0.7071067811865489050 ) ) ;
#198 = VERTEX_POINT ( 'NONE', #138 ) ;
#199 = CARTESIAN_POINT ( 'NONE',  ( 0.000000000000000000, 0.000000000000000000, 0.000000000000000000 ) ) ;
#200 = CARTESIAN_POINT ( 'NONE',  ( 0.000000000000000000, 0.000000000000000000, 1.000000000000000000 ) ) ;
#201 = EDGE_LOOP ( 'NONE', ( #33, #104, #191, #37 ) ) ;
#202 = PRESENTATION_LAYER_ASSIGNMENT (  '', '', ( #190 ) ) ;
#203 = ORIENTED_EDGE ( 'NONE', *, *, #133, .F. ) ;
#204 = VERTEX_POINT ( 'NONE', #73 ) ;
#205 = FACE_OUTER_BOUND ( 'NONE', #15, .T. ) ;
#206 = DIRECTION ( 'NONE',  ( 0.7071067811865460184, 8.659560562354913137E-17, -0.7071067811865489050 ) ) ;
#207 = CIRCLE ( 'NONE', #239, 4.800000000000002487 ) ;
#208 = DIRECTION ( 'NONE',  ( -0.000000000000000000, -0.000000000000000000, -1.000000000000000000 ) ) ;
#209 = DIRECTION ( 'NONE',  ( -1.000000000000000000, 0.000000000000000000, 0.000000000000000000 ) ) ;
#210 = SURFACE_STYLE_FILL_AREA ( #57 ) ;
#211 = LINE ( 'NONE', #193, #155 ) ;
#212 = LINE ( 'NONE', #179, #170 ) ;
#213 = DIRECTION ( 'NONE',  ( -0.000000000000000000, -0.000000000000000000, 1.000000000000000000 ) ) ;
#214 = DIRECTION ( 'NONE',  ( 1.000000000000000000, 0.000000000000000000, 0.000000000000000000 ) ) ;
#215 = ORIENTED_EDGE ( 'NONE', *, *, #4, .F. ) ;
#216 = DIRECTION ( 'NONE',  ( -0.000000000000000000, -0.000000000000000000, -1.000000000000000000 ) ) ;
#217 = ADVANCED_FACE ( 'NONE', ( #94 ), #156, .T. ) ;
#218 = CARTESIAN_POINT ( 'NONE',  ( -5.000000000000000000, 6.123233995736765296E-16, 0.1999999999999996503 ) ) ;
#219 = ORIENTED_EDGE ( 'NONE', *, *, #183, .F. ) ;
#220 = ORIENTED_EDGE ( 'NONE', *, *, #174, .F. ) ;
#221 =( LENGTH_UNIT ( ) NAMED_UNIT ( * ) SI_UNIT ( .MILLI., .METRE. ) );
#222 = DIRECTION ( 'NONE',  ( 0.000000000000000000, 0.000000000000000000, -1.000000000000000000 ) ) ;
#223 = SURFACE_STYLE_FILL_AREA ( #34 ) ;
#224 = CARTESIAN_POINT ( 'NONE',  ( 0.000000000000000000, 0.000000000000000000, 0.1999999999999996503 ) ) ;
#225 = COLOUR_RGB ( '',1.000000000000000000, 1.000000000000000000, 1.000000000000000000 ) ;
#226 = EDGE_LOOP ( 'NONE', ( #48, #20 ) ) ;
#227 = AXIS2_PLACEMENT_3D ( 'NONE', #28, #232, #214 ) ;
#228 = FILL_AREA_STYLE_COLOUR ( '', #55 ) ;
#229 = CARTESIAN_POINT ( 'NONE',  ( 0.000000000000000000, 0.000000000000000000, 0.000000000000000000 ) ) ;
#230 = EDGE_CURVE ( 'NONE', #204, #142, #75, .T. ) ;
#231 = UNCERTAINTY_MEASURE_WITH_UNIT (LENGTH_MEASURE( 1.000000000000000082E-05 ), #72, 'distance_accuracy_value', 'NONE');
#232 = DIRECTION ( 'NONE',  ( -0.000000000000000000, -0.000000000000000000, -1.000000000000000000 ) ) ;
#233 = ORIENTED_EDGE ( 'NONE', *, *, #230, .F. ) ;
#234 = PRODUCT_CONTEXT ( 'NONE', #153, 'mechanical' ) ;
#235 = PLANE ( 'NONE',  #67 ) ;
#236 = DIRECTION ( 'NONE',  ( 0.000000000000000000, 0.000000000000000000, 1.000000000000000000 ) ) ;
#237 = CYLINDRICAL_SURFACE ( 'NONE', #176, 5.000000000000000000 ) ;
#238 = EDGE_LOOP ( 'NONE', ( #112, #17, #203, #32 ) ) ;
#239 = AXIS2_PLACEMENT_3D ( 'NONE', #158, #9, #101 ) ;
#240 = DIRECTION ( 'NONE',  ( 1.000000000000000000, 0.000000000000000000, 0.000000000000000000 ) ) ;
ENDSEC;
END-ISO-10303-21;
