ISO-10303-21;
HEADER;
FILE_DESCRIPTION (( 'STEP AP214' ),
    '1' );
FILE_NAME ('GDMLPH-545-12x17.STEP',
    '2024-08-13T06:07:04',
    ( 'Windows User' ),
    ( 'P R C' ),
    'SwSTEP 2.0',
    'SolidWorks 2022',
    '' );
FILE_SCHEMA (( 'AUTOMOTIVE_DESIGN' ));
ENDSEC;

DATA;
#1 = FACE_OUTER_BOUND ( 'NONE', #149, .T. ) ;
#2 = FACE_OUTER_BOUND ( 'NONE', #177, .T. ) ;
#3 = DIRECTION ( 'NONE',  ( 0.000000000000000000, 1.000000000000000000, 0.000000000000000000 ) ) ;
#4 = SHAPE_DEFINITION_REPRESENTATION ( #164, #60 ) ;
#5 = ORIENTED_EDGE ( 'NONE', *, *, #93, .F. ) ;
#6 = ORIENTED_EDGE ( 'NONE', *, *, #50, .F. ) ;
#7 = CARTESIAN_POINT ( 'NONE',  ( 17.50000000000000000, 0.000000000000000000, 1.100000000000000089 ) ) ;
#8 = VERTEX_POINT ( 'NONE', #146 ) ;
#9 = FACE_OUTER_BOUND ( 'NONE', #124, .T. ) ;
#10 = UNCERTAINTY_MEASURE_WITH_UNIT (LENGTH_MEASURE( 1.000000000000000082E-05 ), #169, 'distance_accuracy_value', 'NONE');
#11 = PRODUCT_DEFINITION_FORMATION_WITH_SPECIFIED_SOURCE ( 'ÈÎºÎ', '', #67, .NOT_KNOWN. ) ;
#12 = CARTESIAN_POINT ( 'NONE',  ( 0.000000000000000000, 0.000000000000000000, 1.100000000000000089 ) ) ;
#13 = VECTOR ( 'NONE', #41, 1000.000000000000000 ) ;
#14 = LINE ( 'NONE', #29, #104 ) ;
#15 = ADVANCED_FACE ( 'NONE', ( #9 ), #18, .F. ) ;
#16 = LINE ( 'NONE', #76, #192 ) ;
#17 =( NAMED_UNIT ( * ) PLANE_ANGLE_UNIT ( ) SI_UNIT ( $, .RADIAN. ) );
#18 = PLANE ( 'NONE',  #90 ) ;
#19 = VERTEX_POINT ( 'NONE', #97 ) ;
#20 = DIRECTION ( 'NONE',  ( 1.000000000000000000, 0.000000000000000000, 0.000000000000000000 ) ) ;
#21 = ORIENTED_EDGE ( 'NONE', *, *, #93, .T. ) ;
#22 = ORIENTED_EDGE ( 'NONE', *, *, #56, .T. ) ;
#23 = ORIENTED_EDGE ( 'NONE', *, *, #34, .T. ) ;
#24 = MECHANICAL_DESIGN_GEOMETRIC_PRESENTATION_REPRESENTATION (  '', ( #153 ), #176 ) ;
#25 = ORIENTED_EDGE ( 'NONE', *, *, #186, .T. ) ;
#26 = DIRECTION ( 'NONE',  ( -1.000000000000000000, -0.000000000000000000, -0.000000000000000000 ) ) ;
#27 = VECTOR ( 'NONE', #136, 1000.000000000000000 ) ;
#28 = VECTOR ( 'NONE', #116, 1000.000000000000000 ) ;
#29 = CARTESIAN_POINT ( 'NONE',  ( 0.000000000000000000, 12.50000000000000000, 1.100000000000000089 ) ) ;
#30 = PRODUCT_RELATED_PRODUCT_CATEGORY ( 'part', '', ( #67 ) ) ;
#31 = LINE ( 'NONE', #55, #171 ) ;
#32 = CARTESIAN_POINT ( 'NONE',  ( 0.000000000000000000, 0.000000000000000000, 0.000000000000000000 ) ) ;
#33 = CARTESIAN_POINT ( 'NONE',  ( 17.50000000000000000, 0.000000000000000000, 1.100000000000000089 ) ) ;
#34 = EDGE_CURVE ( 'NONE', #35, #8, #162, .T. ) ;
#35 = VERTEX_POINT ( 'NONE', #147 ) ;
#36 = EDGE_LOOP ( 'NONE', ( #180, #96, #111, #21 ) ) ;
#37 = ORIENTED_EDGE ( 'NONE', *, *, #68, .F. ) ;
#38 = VERTEX_POINT ( 'NONE', #7 ) ;
#39 = SURFACE_STYLE_USAGE ( .BOTH. , #181 ) ;
#40 = SURFACE_STYLE_USAGE ( .BOTH. , #42 ) ;
#41 = DIRECTION ( 'NONE',  ( -0.000000000000000000, -1.000000000000000000, -0.000000000000000000 ) ) ;
#42 = SURFACE_SIDE_STYLE ('',( #54 ) ) ;
#43 = VECTOR ( 'NONE', #187, 1000.000000000000000 ) ;
#44 =( LENGTH_UNIT ( ) NAMED_UNIT ( * ) SI_UNIT ( .MILLI., .METRE. ) );
#45 = DIRECTION ( 'NONE',  ( 0.000000000000000000, 0.000000000000000000, 1.000000000000000000 ) ) ;
#46 = LINE ( 'NONE', #106, #141 ) ;
#47 = DIRECTION ( 'NONE',  ( 0.000000000000000000, -0.000000000000000000, -1.000000000000000000 ) ) ;
#48 = ORIENTED_EDGE ( 'NONE', *, *, #173, .F. ) ;
#49 = ORIENTED_EDGE ( 'NONE', *, *, #150, .F. ) ;
#50 = EDGE_CURVE ( 'NONE', #38, #178, #66, .T. ) ;
#51 = APPLICATION_CONTEXT ( 'automotive_design' ) ;
#52 = COLOUR_RGB ( '',1.000000000000000000, 1.000000000000000000, 1.000000000000000000 ) ;
#53 = LINE ( 'NONE', #72, #28 ) ;
#54 = SURFACE_STYLE_FILL_AREA ( #85 ) ;
#55 = CARTESIAN_POINT ( 'NONE',  ( 0.000000000000000000, 0.000000000000000000, 1.100000000000000089 ) ) ;
#56 = EDGE_CURVE ( 'NONE', #38, #61, #73, .T. ) ;
#57 = CARTESIAN_POINT ( 'NONE',  ( 17.50000000000000000, 0.000000000000000000, 1.100000000000000089 ) ) ;
#58 = PLANE ( 'NONE',  #71 ) ;
#59 = PLANE ( 'NONE',  #122 ) ;
#60 = ADVANCED_BREP_SHAPE_REPRESENTATION ( 'GDMLPH-545-12x17', ( #137, #128 ), #109 ) ;
#61 = VERTEX_POINT ( 'NONE', #91 ) ;
#62 = PRODUCT_DEFINITION ( 'Î´Öª', '', #11, #183 ) ;
#63 = ORIENTED_EDGE ( 'NONE', *, *, #74, .F. ) ;
#64 = APPLICATION_PROTOCOL_DEFINITION ( 'draft international standard', 'automotive_design', 1998, #202 ) ;
#65 = CARTESIAN_POINT ( 'NONE',  ( 0.000000000000000000, 12.50000000000000000, 0.000000000000000000 ) ) ;
#66 = LINE ( 'NONE', #196, #43 ) ;
#67 = PRODUCT ( 'GDMLPH-545-12x17', 'GDMLPH-545-12x17', '', ( #159 ) ) ;
#68 = EDGE_CURVE ( 'NONE', #19, #8, #46, .T. ) ;
#69 = UNCERTAINTY_MEASURE_WITH_UNIT (LENGTH_MEASURE( 1.000000000000000082E-05 ), #44, 'distance_accuracy_value', 'NONE');
#70 = CARTESIAN_POINT ( 'NONE',  ( 0.000000000000000000, 0.000000000000000000, 1.100000000000000089 ) ) ;
#71 = AXIS2_PLACEMENT_3D ( 'NONE', #32, #78, #120 ) ;
#72 = CARTESIAN_POINT ( 'NONE',  ( 0.000000000000000000, 0.000000000000000000, 0.000000000000000000 ) ) ;
#73 = LINE ( 'NONE', #57, #27 ) ;
#74 = EDGE_CURVE ( 'NONE', #145, #113, #31, .T. ) ;
#75 = LINE ( 'NONE', #138, #158 ) ;
#76 = CARTESIAN_POINT ( 'NONE',  ( 17.50000000000000000, 12.50000000000000000, 1.100000000000000089 ) ) ;
#77 = PRESENTATION_STYLE_ASSIGNMENT (( #39 ) ) ;
#78 = DIRECTION ( 'NONE',  ( 0.000000000000000000, 0.000000000000000000, -1.000000000000000000 ) ) ;
#79 = EDGE_LOOP ( 'NONE', ( #80, #102, #48, #81 ) ) ;
#80 = ORIENTED_EDGE ( 'NONE', *, *, #110, .F. ) ;
#81 = ORIENTED_EDGE ( 'NONE', *, *, #130, .F. ) ;
#82 = VECTOR ( 'NONE', #131, 1000.000000000000000 ) ;
#83 = ORIENTED_EDGE ( 'NONE', *, *, #56, .F. ) ;
#84 = EDGE_LOOP ( 'NONE', ( #126, #63, #99, #163 ) ) ;
#85 = FILL_AREA_STYLE ('',( #135 ) ) ;
#86 = ADVANCED_FACE ( 'NONE', ( #95 ), #107, .F. ) ;
#87 = CARTESIAN_POINT ( 'NONE',  ( 0.000000000000000000, 0.000000000000000000, 1.100000000000000089 ) ) ;
#88 =( GEOMETRIC_REPRESENTATION_CONTEXT ( 3 ) GLOBAL_UNCERTAINTY_ASSIGNED_CONTEXT ( ( #129 ) ) GLOBAL_UNIT_ASSIGNED_CONTEXT ( ( #98, #17, #140 ) ) REPRESENTATION_CONTEXT ( 'NONE', 'WORKASPACE' ) );
#89 = FACE_OUTER_BOUND ( 'NONE', #84, .T. ) ;
#90 = AXIS2_PLACEMENT_3D ( 'NONE', #144, #194, #47 ) ;
#91 = CARTESIAN_POINT ( 'NONE',  ( 17.50000000000000000, 0.000000000000000000, 0.000000000000000000 ) ) ;
#92 = PRESENTATION_LAYER_ASSIGNMENT (  '', '', ( #153 ) ) ;
#93 = EDGE_CURVE ( 'NONE', #178, #19, #14, .T. ) ;
#94 =( NAMED_UNIT ( * ) PLANE_ANGLE_UNIT ( ) SI_UNIT ( $, .RADIAN. ) );
#95 = FACE_OUTER_BOUND ( 'NONE', #36, .T. ) ;
#96 = ORIENTED_EDGE ( 'NONE', *, *, #150, .T. ) ;
#97 = CARTESIAN_POINT ( 'NONE',  ( 0.000000000000000000, 12.50000000000000000, 1.100000000000000089 ) ) ;
#98 =( LENGTH_UNIT ( ) NAMED_UNIT ( * ) SI_UNIT ( .MILLI., .METRE. ) );
#99 = ORIENTED_EDGE ( 'NONE', *, *, #112, .F. ) ;
#100 = ORIENTED_EDGE ( 'NONE', *, *, #74, .T. ) ;
#101 = AXIS2_PLACEMENT_3D ( 'NONE', #33, #189, #45 ) ;
#102 = ORIENTED_EDGE ( 'NONE', *, *, #34, .F. ) ;
#103 = CARTESIAN_POINT ( 'NONE',  ( 0.000000000000000000, 0.000000000000000000, 0.000000000000000000 ) ) ;
#104 = VECTOR ( 'NONE', #26, 1000.000000000000000 ) ;
#105 = CARTESIAN_POINT ( 'NONE',  ( 0.000000000000000000, 0.000000000000000000, 1.100000000000000089 ) ) ;
#106 = CARTESIAN_POINT ( 'NONE',  ( 0.000000000000000000, 12.50000000000000000, 1.100000000000000089 ) ) ;
#107 = PLANE ( 'NONE',  #197 ) ;
#108 = PLANE ( 'NONE',  #101 ) ;
#109 =( GEOMETRIC_REPRESENTATION_CONTEXT ( 3 ) GLOBAL_UNCERTAINTY_ASSIGNED_CONTEXT ( ( #69 ) ) GLOBAL_UNIT_ASSIGNED_CONTEXT ( ( #44, #94, #123 ) ) REPRESENTATION_CONTEXT ( 'NONE', 'WORKASPACE' ) );
#110 = EDGE_CURVE ( 'NONE', #8, #113, #75, .T. ) ;
#111 = ORIENTED_EDGE ( 'NONE', *, *, #50, .T. ) ;
#112 = EDGE_CURVE ( 'NONE', #19, #145, #185, .T. ) ;
#113 = VERTEX_POINT ( 'NONE', #103 ) ;
#114 = ADVANCED_FACE ( 'NONE', ( #89 ), #134, .F. ) ;
#115 = CARTESIAN_POINT ( 'NONE',  ( 0.000000000000000000, 0.000000000000000000, 1.100000000000000089 ) ) ;
#116 = DIRECTION ( 'NONE',  ( 1.000000000000000000, 0.000000000000000000, 0.000000000000000000 ) ) ;
#117 = PRESENTATION_STYLE_ASSIGNMENT (( #40 ) ) ;
#118 = DIRECTION ( 'NONE',  ( -0.000000000000000000, -0.000000000000000000, -1.000000000000000000 ) ) ;
#119 = DIRECTION ( 'NONE',  ( 0.000000000000000000, 0.000000000000000000, -1.000000000000000000 ) ) ;
#120 = DIRECTION ( 'NONE',  ( -1.000000000000000000, 0.000000000000000000, -0.000000000000000000 ) ) ;
#121 = CARTESIAN_POINT ( 'NONE',  ( 17.50000000000000000, 0.000000000000000000, 0.000000000000000000 ) ) ;
#122 = AXIS2_PLACEMENT_3D ( 'NONE', #70, #133, #200 ) ;
#123 =( NAMED_UNIT ( * ) SI_UNIT ( $, .STERADIAN. ) SOLID_ANGLE_UNIT ( ) );
#124 = EDGE_LOOP ( 'NONE', ( #23, #37, #5, #25 ) ) ;
#125 = DIRECTION ( 'NONE',  ( -1.000000000000000000, -0.000000000000000000, -0.000000000000000000 ) ) ;
#126 = ORIENTED_EDGE ( 'NONE', *, *, #110, .T. ) ;
#127 = SURFACE_STYLE_FILL_AREA ( #142 ) ;
#128 = AXIS2_PLACEMENT_3D ( 'NONE', #160, #156, #20 ) ;
#129 = UNCERTAINTY_MEASURE_WITH_UNIT (LENGTH_MEASURE( 1.000000000000000082E-05 ), #98, 'distance_accuracy_value', 'NONE');
#130 = EDGE_CURVE ( 'NONE', #113, #61, #53, .T. ) ;
#131 = DIRECTION ( 'NONE',  ( 1.000000000000000000, 0.000000000000000000, 0.000000000000000000 ) ) ;
#132 = DIRECTION ( 'NONE',  ( 0.000000000000000000, 0.000000000000000000, -1.000000000000000000 ) ) ;
#133 = DIRECTION ( 'NONE',  ( 0.000000000000000000, 1.000000000000000000, 0.000000000000000000 ) ) ;
#134 = PLANE ( 'NONE',  #166 ) ;
#135 = FILL_AREA_STYLE_COLOUR ( '', #182 ) ;
#136 = DIRECTION ( 'NONE',  ( -0.000000000000000000, -0.000000000000000000, -1.000000000000000000 ) ) ;
#137 = MANIFOLD_SOLID_BREP ( 'Í¹Ì¨-À­Éì1', #152 ) ;
#138 = CARTESIAN_POINT ( 'NONE',  ( 0.000000000000000000, 0.000000000000000000, 0.000000000000000000 ) ) ;
#139 = DIRECTION ( 'NONE',  ( -0.000000000000000000, -0.000000000000000000, -1.000000000000000000 ) ) ;
#140 =( NAMED_UNIT ( * ) SI_UNIT ( $, .STERADIAN. ) SOLID_ANGLE_UNIT ( ) );
#141 = VECTOR ( 'NONE', #184, 1000.000000000000000 ) ;
#142 = FILL_AREA_STYLE ('',( #191 ) ) ;
#143 = VECTOR ( 'NONE', #3, 1000.000000000000000 ) ;
#144 = CARTESIAN_POINT ( 'NONE',  ( 0.000000000000000000, 12.50000000000000000, 1.100000000000000089 ) ) ;
#145 = VERTEX_POINT ( 'NONE', #151 ) ;
#146 = CARTESIAN_POINT ( 'NONE',  ( 0.000000000000000000, 12.50000000000000000, 0.000000000000000000 ) ) ;
#147 = CARTESIAN_POINT ( 'NONE',  ( 17.50000000000000000, 12.50000000000000000, 0.000000000000000000 ) ) ;
#148 = ORIENTED_EDGE ( 'NONE', *, *, #130, .T. ) ;
#149 = EDGE_LOOP ( 'NONE', ( #167, #165, #6, #22 ) ) ;
#150 = EDGE_CURVE ( 'NONE', #145, #38, #199, .T. ) ;
#151 = CARTESIAN_POINT ( 'NONE',  ( 0.000000000000000000, 0.000000000000000000, 1.100000000000000089 ) ) ;
#152 = CLOSED_SHELL ( 'NONE', ( #114, #195, #193, #15, #86, #168 ) ) ;
#153 = STYLED_ITEM ( 'NONE', ( #117 ), #137 ) ;
#154 = DIRECTION ( 'NONE',  ( -1.000000000000000000, 0.000000000000000000, -0.000000000000000000 ) ) ;
#155 = CARTESIAN_POINT ( 'NONE',  ( 17.50000000000000000, 12.50000000000000000, 1.100000000000000089 ) ) ;
#156 = DIRECTION ( 'NONE',  ( 0.000000000000000000, 0.000000000000000000, 1.000000000000000000 ) ) ;
#157 = FACE_OUTER_BOUND ( 'NONE', #79, .T. ) ;
#158 = VECTOR ( 'NONE', #190, 1000.000000000000000 ) ;
#159 = PRODUCT_CONTEXT ( 'NONE', #202, 'mechanical' ) ;
#160 = CARTESIAN_POINT ( 'NONE',  ( 0.000000000000000000, 0.000000000000000000, 0.000000000000000000 ) ) ;
#161 = MECHANICAL_DESIGN_GEOMETRIC_PRESENTATION_REPRESENTATION (  '', ( #188 ), #88 ) ;
#162 = LINE ( 'NONE', #65, #179 ) ;
#163 = ORIENTED_EDGE ( 'NONE', *, *, #68, .T. ) ;
#164 = PRODUCT_DEFINITION_SHAPE ( 'NONE', 'NONE',  #62 ) ;
#165 = ORIENTED_EDGE ( 'NONE', *, *, #186, .F. ) ;
#166 = AXIS2_PLACEMENT_3D ( 'NONE', #12, #201, #132 ) ;
#167 = ORIENTED_EDGE ( 'NONE', *, *, #173, .T. ) ;
#168 = ADVANCED_FACE ( 'NONE', ( #157 ), #58, .T. ) ;
#169 =( LENGTH_UNIT ( ) NAMED_UNIT ( * ) SI_UNIT ( .MILLI., .METRE. ) );
#170 =( NAMED_UNIT ( * ) PLANE_ANGLE_UNIT ( ) SI_UNIT ( $, .RADIAN. ) );
#171 = VECTOR ( 'NONE', #118, 1000.000000000000000 ) ;
#172 = PRESENTATION_LAYER_ASSIGNMENT (  '', '', ( #188 ) ) ;
#173 = EDGE_CURVE ( 'NONE', #61, #35, #174, .T. ) ;
#174 = LINE ( 'NONE', #121, #143 ) ;
#175 = APPLICATION_PROTOCOL_DEFINITION ( 'draft international standard', 'automotive_design', 1998, #51 ) ;
#176 =( GEOMETRIC_REPRESENTATION_CONTEXT ( 3 ) GLOBAL_UNCERTAINTY_ASSIGNED_CONTEXT ( ( #10 ) ) GLOBAL_UNIT_ASSIGNED_CONTEXT ( ( #169, #170, #198 ) ) REPRESENTATION_CONTEXT ( 'NONE', 'WORKASPACE' ) );
#177 = EDGE_LOOP ( 'NONE', ( #148, #83, #49, #100 ) ) ;
#178 = VERTEX_POINT ( 'NONE', #155 ) ;
#179 = VECTOR ( 'NONE', #125, 1000.000000000000000 ) ;
#180 = ORIENTED_EDGE ( 'NONE', *, *, #112, .T. ) ;
#181 = SURFACE_SIDE_STYLE ('',( #127 ) ) ;
#182 = COLOUR_RGB ( '',1.000000000000000000, 1.000000000000000000, 1.000000000000000000 ) ;
#183 = PRODUCT_DEFINITION_CONTEXT ( 'detailed design', #51, 'design' ) ;
#184 = DIRECTION ( 'NONE',  ( -0.000000000000000000, -0.000000000000000000, -1.000000000000000000 ) ) ;
#185 = LINE ( 'NONE', #115, #13 ) ;
#186 = EDGE_CURVE ( 'NONE', #178, #35, #16, .T. ) ;
#187 = DIRECTION ( 'NONE',  ( 0.000000000000000000, 1.000000000000000000, 0.000000000000000000 ) ) ;
#188 = STYLED_ITEM ( 'NONE', ( #77 ), #60 ) ;
#189 = DIRECTION ( 'NONE',  ( -1.000000000000000000, 0.000000000000000000, 0.000000000000000000 ) ) ;
#190 = DIRECTION ( 'NONE',  ( -0.000000000000000000, -1.000000000000000000, -0.000000000000000000 ) ) ;
#191 = FILL_AREA_STYLE_COLOUR ( '', #52 ) ;
#192 = VECTOR ( 'NONE', #139, 1000.000000000000000 ) ;
#193 = ADVANCED_FACE ( 'NONE', ( #1 ), #108, .F. ) ;
#194 = DIRECTION ( 'NONE',  ( 0.000000000000000000, -1.000000000000000000, 0.000000000000000000 ) ) ;
#195 = ADVANCED_FACE ( 'NONE', ( #2 ), #59, .F. ) ;
#196 = CARTESIAN_POINT ( 'NONE',  ( 17.50000000000000000, 0.000000000000000000, 1.100000000000000089 ) ) ;
#197 = AXIS2_PLACEMENT_3D ( 'NONE', #105, #119, #154 ) ;
#198 =( NAMED_UNIT ( * ) SI_UNIT ( $, .STERADIAN. ) SOLID_ANGLE_UNIT ( ) );
#199 = LINE ( 'NONE', #87, #82 ) ;
#200 = DIRECTION ( 'NONE',  ( 0.000000000000000000, -0.000000000000000000, 1.000000000000000000 ) ) ;
#201 = DIRECTION ( 'NONE',  ( 1.000000000000000000, 0.000000000000000000, 0.000000000000000000 ) ) ;
#202 = APPLICATION_CONTEXT ( 'automotive_design' ) ;
ENDSEC;
END-ISO-10303-21;
