ISO-10303-21;
HEADER;
FILE_DESCRIPTION (( 'STEP AP214' ),
    '1' );
FILE_NAME ('248591.STEP',
    '2019-08-06T03:35:20',
    ( 'user' ),
    ( 'Î¢ÈíÖÐ¹ú' ),
    'SwSTEP 2.0',
    'SolidWorks 2016',
    '' );
FILE_SCHEMA (( 'AUTOMOTIVE_DESIGN' ));
ENDSEC;

DATA;
#1 = SHAPE_DEFINITION_REPRESENTATION ( #136, #50 ) ;
#2 = AXIS2_PLACEMENT_3D ( 'NONE', #14, #121, #6 ) ;
#3 = FACE_OUTER_BOUND ( 'NONE', #126, .T. ) ;
#4 = DIRECTION ( 'NONE',  ( 0.0000000000000000000, 0.0000000000000000000, 1.000000000000000000 ) ) ;
#5 = DIRECTION ( 'NONE',  ( 1.000000000000000000, 0.0000000000000000000, 0.0000000000000000000 ) ) ;
#6 = DIRECTION ( 'NONE',  ( 0.0000000000000000000, 0.0000000000000000000, -1.000000000000000000 ) ) ;
#7 = PRODUCT_CONTEXT ( 'NONE', #81, 'mechanical' ) ;
#8 = FILL_AREA_STYLE_COLOUR ( '', #133 ) ;
#9 = DIRECTION ( 'NONE',  ( 0.0000000000000000000, 1.000000000000000000, 0.0000000000000000000 ) ) ;
#10 = STYLED_ITEM ( 'NONE', ( #86 ), #50 ) ;
#11 = DIRECTION ( 'NONE',  ( 0.0000000000000000000, -0.0000000000000000000, 1.000000000000000000 ) ) ;
#12 = ORIENTED_EDGE ( 'NONE', *, *, #71, .F. ) ;
#13 = APPLICATION_CONTEXT ( 'automotive_design' ) ;
#14 = CARTESIAN_POINT ( 'NONE',  ( 0.0000000000000000000, 1.250000000000000000, 0.0000000000000000000 ) ) ;
#15 =( NAMED_UNIT ( * ) SI_UNIT ( $, .STERADIAN. ) SOLID_ANGLE_UNIT ( ) );
#16 = APPLICATION_PROTOCOL_DEFINITION ( 'draft international standard', 'automotive_design', 1998, #13 ) ;
#17 = DIRECTION ( 'NONE',  ( 0.0000000000000000000, 1.000000000000000000, 0.0000000000000000000 ) ) ;
#18 = AXIS2_PLACEMENT_3D ( 'NONE', #107, #100, #83 ) ;
#19 = ORIENTED_EDGE ( 'NONE', *, *, #120, .F. ) ;
#20 = SURFACE_STYLE_FILL_AREA ( #55 ) ;
#21 = VERTEX_POINT ( 'NONE', #76 ) ;
#22 = PRESENTATION_LAYER_ASSIGNMENT (  '', '', ( #10 ) ) ;
#23 = CARTESIAN_POINT ( 'NONE',  ( 0.0000000000000000000, 1.250000000000000000, -12.50000000000000000 ) ) ;
#24 = CLOSED_SHELL ( 'NONE', ( #53, #73, #49, #44 ) ) ;
#25 =( NAMED_UNIT ( * ) PLANE_ANGLE_UNIT ( ) SI_UNIT ( $, .RADIAN. ) );
#26 = CARTESIAN_POINT ( 'NONE',  ( 0.0000000000000000000, 0.0000000000000000000, 0.0000000000000000000 ) ) ;
#27 = UNCERTAINTY_MEASURE_WITH_UNIT (LENGTH_MEASURE( 1.000000000000000100E-005 ), #80, 'distance_accuracy_value', 'NONE');
#28 = CARTESIAN_POINT ( 'NONE',  ( 1.530808498934191500E-015, 1.250000000000000000, 12.50000000000000000 ) ) ;
#29 = EDGE_LOOP ( 'NONE', ( #43, #78, #132, #12 ) ) ;
#30 =( NAMED_UNIT ( * ) PLANE_ANGLE_UNIT ( ) SI_UNIT ( $, .RADIAN. ) );
#31 = CARTESIAN_POINT ( 'NONE',  ( 0.0000000000000000000, 0.0000000000000000000, 0.0000000000000000000 ) ) ;
#32 = PRODUCT_DEFINITION_FORMATION_WITH_SPECIFIED_SOURCE ( 'ÈÎºÎ', '', #62, .NOT_KNOWN. ) ;
#33 = CIRCLE ( 'NONE', #35, 12.50000000000000000 ) ;
#34 = FILL_AREA_STYLE_COLOUR ( '', #61 ) ;
#35 = AXIS2_PLACEMENT_3D ( 'NONE', #42, #101, #102 ) ;
#36 = FACE_OUTER_BOUND ( 'NONE', #75, .T. ) ;
#37 = UNCERTAINTY_MEASURE_WITH_UNIT (LENGTH_MEASURE( 1.000000000000000100E-005 ), #93, 'distance_accuracy_value', 'NONE');
#38 = ORIENTED_EDGE ( 'NONE', *, *, #125, .T. ) ;
#39 = PLANE ( 'NONE',  #52 ) ;
#40 = CARTESIAN_POINT ( 'NONE',  ( 0.0000000000000000000, 1.250000000000000000, 0.0000000000000000000 ) ) ;
#41 = MECHANICAL_DESIGN_GEOMETRIC_PRESENTATION_REPRESENTATION (  '', ( #118 ), #124 ) ;
#42 = CARTESIAN_POINT ( 'NONE',  ( 0.0000000000000000000, 1.250000000000000000, 0.0000000000000000000 ) ) ;
#43 = ORIENTED_EDGE ( 'NONE', *, *, #125, .F. ) ;
#44 = ADVANCED_FACE ( 'NONE', ( #36 ), #135, .F. ) ;
#45 = DIRECTION ( 'NONE',  ( 0.0000000000000000000, 0.0000000000000000000, 1.000000000000000000 ) ) ;
#46 = VERTEX_POINT ( 'NONE', #28 ) ;
#47 = PRESENTATION_STYLE_ASSIGNMENT (( #99 ) ) ;
#48 = AXIS2_PLACEMENT_3D ( 'NONE', #31, #4, #5 ) ;
#49 = ADVANCED_FACE ( 'NONE', ( #64 ), #39, .T. ) ;
#50 = ADVANCED_BREP_SHAPE_REPRESENTATION ( '248591', ( #106, #48 ), #58 ) ;
#51 = SURFACE_STYLE_FILL_AREA ( #77 ) ;
#52 = AXIS2_PLACEMENT_3D ( 'NONE', #70, #9, #11 ) ;
#53 = ADVANCED_FACE ( 'NONE', ( #96 ), #139, .T. ) ;
#54 = CIRCLE ( 'NONE', #18, 12.50000000000000000 ) ;
#55 = FILL_AREA_STYLE ('',( #34 ) ) ;
#56 = EDGE_CURVE ( 'NONE', #111, #46, #33, .T. ) ;
#57 = CARTESIAN_POINT ( 'NONE',  ( 0.0000000000000000000, 0.0000000000000000000, 0.0000000000000000000 ) ) ;
#58 =( GEOMETRIC_REPRESENTATION_CONTEXT ( 3 ) GLOBAL_UNCERTAINTY_ASSIGNED_CONTEXT ( ( #37 ) ) GLOBAL_UNIT_ASSIGNED_CONTEXT ( ( #93, #67, #130 ) ) REPRESENTATION_CONTEXT ( 'NONE', 'WORKASPACE' ) );
#59 = DIRECTION ( 'NONE',  ( 0.0000000000000000000, 0.0000000000000000000, -1.000000000000000000 ) ) ;
#60 = AXIS2_PLACEMENT_3D ( 'NONE', #112, #79, #59 ) ;
#61 = COLOUR_RGB ( '',1.000000000000000000, 1.000000000000000000, 1.000000000000000000 ) ;
#62 = PRODUCT ( '248591', '248591', '', ( #7 ) ) ;
#63 = PRODUCT_DEFINITION_CONTEXT ( 'detailed design', #13, 'design' ) ;
#64 = FACE_OUTER_BOUND ( 'NONE', #104, .T. ) ;
#65 =( NAMED_UNIT ( * ) SI_UNIT ( $, .STERADIAN. ) SOLID_ANGLE_UNIT ( ) );
#66 = SURFACE_SIDE_STYLE ('',( #51 ) ) ;
#67 =( NAMED_UNIT ( * ) PLANE_ANGLE_UNIT ( ) SI_UNIT ( $, .RADIAN. ) );
#68 = DIRECTION ( 'NONE',  ( 0.0000000000000000000, 1.000000000000000000, 0.0000000000000000000 ) ) ;
#69 = ORIENTED_EDGE ( 'NONE', *, *, #71, .T. ) ;
#70 = CARTESIAN_POINT ( 'NONE',  ( 0.0000000000000000000, 1.250000000000000000, 0.0000000000000000000 ) ) ;
#71 = EDGE_CURVE ( 'NONE', #111, #21, #122, .T. ) ;
#72 = ORIENTED_EDGE ( 'NONE', *, *, #87, .F. ) ;
#73 = ADVANCED_FACE ( 'NONE', ( #3 ), #105, .T. ) ;
#74 = AXIS2_PLACEMENT_3D ( 'NONE', #26, #17, #119 ) ;
#75 = EDGE_LOOP ( 'NONE', ( #72, #19 ) ) ;
#76 = CARTESIAN_POINT ( 'NONE',  ( 0.0000000000000000000, 0.0000000000000000000, -12.50000000000000000 ) ) ;
#77 = FILL_AREA_STYLE ('',( #8 ) ) ;
#78 = ORIENTED_EDGE ( 'NONE', *, *, #94, .T. ) ;
#79 = DIRECTION ( 'NONE',  ( -0.0000000000000000000, -1.000000000000000000, -0.0000000000000000000 ) ) ;
#80 =( LENGTH_UNIT ( ) NAMED_UNIT ( * ) SI_UNIT ( .MILLI., .METRE. ) );
#81 = APPLICATION_CONTEXT ( 'automotive_design' ) ;
#82 = VERTEX_POINT ( 'NONE', #109 ) ;
#83 = DIRECTION ( 'NONE',  ( 0.0000000000000000000, 0.0000000000000000000, 1.000000000000000000 ) ) ;
#84 =( LENGTH_UNIT ( ) NAMED_UNIT ( * ) SI_UNIT ( .MILLI., .METRE. ) );
#85 = PRODUCT_RELATED_PRODUCT_CATEGORY ( 'part', '', ( #62 ) ) ;
#86 = PRESENTATION_STYLE_ASSIGNMENT (( #117 ) ) ;
#87 = EDGE_CURVE ( 'NONE', #21, #82, #54, .T. ) ;
#88 = AXIS2_PLACEMENT_3D ( 'NONE', #57, #68, #45 ) ;
#89 = UNCERTAINTY_MEASURE_WITH_UNIT (LENGTH_MEASURE( 1.000000000000000100E-005 ), #84, 'distance_accuracy_value', 'NONE');
#90 = DIRECTION ( 'NONE',  ( 0.0000000000000000000, 0.0000000000000000000, 1.000000000000000000 ) ) ;
#91 = LINE ( 'NONE', #128, #110 ) ;
#92 = CIRCLE ( 'NONE', #88, 12.50000000000000000 ) ;
#93 =( LENGTH_UNIT ( ) NAMED_UNIT ( * ) SI_UNIT ( .MILLI., .METRE. ) );
#94 = EDGE_CURVE ( 'NONE', #46, #82, #91, .T. ) ;
#95 =( GEOMETRIC_REPRESENTATION_CONTEXT ( 3 ) GLOBAL_UNCERTAINTY_ASSIGNED_CONTEXT ( ( #27 ) ) GLOBAL_UNIT_ASSIGNED_CONTEXT ( ( #80, #25, #15 ) ) REPRESENTATION_CONTEXT ( 'NONE', 'WORKASPACE' ) );
#96 = FACE_OUTER_BOUND ( 'NONE', #29, .T. ) ;
#97 = ORIENTED_EDGE ( 'NONE', *, *, #87, .T. ) ;
#98 = DIRECTION ( 'NONE',  ( 0.0000000000000000000, 1.000000000000000000, 0.0000000000000000000 ) ) ;
#99 = SURFACE_STYLE_USAGE ( .BOTH. , #115 ) ;
#100 = DIRECTION ( 'NONE',  ( 0.0000000000000000000, 1.000000000000000000, 0.0000000000000000000 ) ) ;
#101 = DIRECTION ( 'NONE',  ( 0.0000000000000000000, 1.000000000000000000, 0.0000000000000000000 ) ) ;
#102 = DIRECTION ( 'NONE',  ( 0.0000000000000000000, 0.0000000000000000000, 1.000000000000000000 ) ) ;
#103 = MECHANICAL_DESIGN_GEOMETRIC_PRESENTATION_REPRESENTATION (  '', ( #10 ), #95 ) ;
#104 = EDGE_LOOP ( 'NONE', ( #123, #38 ) ) ;
#105 = CYLINDRICAL_SURFACE ( 'NONE', #60, 12.50000000000000000 ) ;
#106 = MANIFOLD_SOLID_BREP ( 'Í¹Ì¨-À­Éì1', #24 ) ;
#107 = CARTESIAN_POINT ( 'NONE',  ( 0.0000000000000000000, 0.0000000000000000000, 0.0000000000000000000 ) ) ;
#108 = ORIENTED_EDGE ( 'NONE', *, *, #94, .F. ) ;
#109 = CARTESIAN_POINT ( 'NONE',  ( 1.530808498934191500E-015, 0.0000000000000000000, 12.50000000000000000 ) ) ;
#110 = VECTOR ( 'NONE', #134, 1000.000000000000000 ) ;
#111 = VERTEX_POINT ( 'NONE', #129 ) ;
#112 = CARTESIAN_POINT ( 'NONE',  ( 0.0000000000000000000, 1.250000000000000000, 0.0000000000000000000 ) ) ;
#113 = PRODUCT_DEFINITION ( 'Î´Öª', '', #32, #63 ) ;
#114 = APPLICATION_PROTOCOL_DEFINITION ( 'draft international standard', 'automotive_design', 1998, #81 ) ;
#115 = SURFACE_SIDE_STYLE ('',( #20 ) ) ;
#116 = VECTOR ( 'NONE', #137, 1000.000000000000000 ) ;
#117 = SURFACE_STYLE_USAGE ( .BOTH. , #66 ) ;
#118 = STYLED_ITEM ( 'NONE', ( #47 ), #106 ) ;
#119 = DIRECTION ( 'NONE',  ( 0.0000000000000000000, -0.0000000000000000000, 1.000000000000000000 ) ) ;
#120 = EDGE_CURVE ( 'NONE', #82, #21, #92, .T. ) ;
#121 = DIRECTION ( 'NONE',  ( -0.0000000000000000000, -1.000000000000000000, -0.0000000000000000000 ) ) ;
#122 = LINE ( 'NONE', #23, #116 ) ;
#123 = ORIENTED_EDGE ( 'NONE', *, *, #56, .T. ) ;
#124 =( GEOMETRIC_REPRESENTATION_CONTEXT ( 3 ) GLOBAL_UNCERTAINTY_ASSIGNED_CONTEXT ( ( #89 ) ) GLOBAL_UNIT_ASSIGNED_CONTEXT ( ( #84, #30, #65 ) ) REPRESENTATION_CONTEXT ( 'NONE', 'WORKASPACE' ) );
#125 = EDGE_CURVE ( 'NONE', #46, #111, #140, .T. ) ;
#126 = EDGE_LOOP ( 'NONE', ( #108, #127, #69, #97 ) ) ;
#127 = ORIENTED_EDGE ( 'NONE', *, *, #56, .F. ) ;
#128 = CARTESIAN_POINT ( 'NONE',  ( 1.530808498934191500E-015, 1.250000000000000000, 12.50000000000000000 ) ) ;
#129 = CARTESIAN_POINT ( 'NONE',  ( 0.0000000000000000000, 1.250000000000000000, -12.50000000000000000 ) ) ;
#130 =( NAMED_UNIT ( * ) SI_UNIT ( $, .STERADIAN. ) SOLID_ANGLE_UNIT ( ) );
#131 = PRESENTATION_LAYER_ASSIGNMENT (  '', '', ( #118 ) ) ;
#132 = ORIENTED_EDGE ( 'NONE', *, *, #120, .T. ) ;
#133 = COLOUR_RGB ( '',1.000000000000000000, 1.000000000000000000, 1.000000000000000000 ) ;
#134 = DIRECTION ( 'NONE',  ( -0.0000000000000000000, -1.000000000000000000, -0.0000000000000000000 ) ) ;
#135 = PLANE ( 'NONE',  #74 ) ;
#136 = PRODUCT_DEFINITION_SHAPE ( 'NONE', 'NONE',  #113 ) ;
#137 = DIRECTION ( 'NONE',  ( -0.0000000000000000000, -1.000000000000000000, -0.0000000000000000000 ) ) ;
#138 = AXIS2_PLACEMENT_3D ( 'NONE', #40, #98, #90 ) ;
#139 = CYLINDRICAL_SURFACE ( 'NONE', #2, 12.50000000000000000 ) ;
#140 = CIRCLE ( 'NONE', #138, 12.50000000000000000 ) ;
ENDSEC;
END-ISO-10303-21;
