ISO-10303-21;
HEADER;
FILE_DESCRIPTION (( 'STEP AP214' ),
    '1' );
FILE_NAME ('100005.STEP',
    '2019-04-19T01:31:21',
    ( '' ),
    ( '' ),
    'SwSTEP 2.0',
    'SolidWorks 2016',
    '' );
FILE_SCHEMA (( 'AUTOMOTIVE_DESIGN' ));
ENDSEC;

DATA;
#1 = APPLICATION_PROTOCOL_DEFINITION ( 'draft international standard', 'automotive_design', 1998, #163 ) ;
#2 = EDGE_LOOP ( 'NONE', ( #21, #139, #12, #93, #169 ) ) ;
#3 = DIRECTION ( 'NONE',  ( 0.0000000000000000000, 1.000000000000000000, 0.0000000000000000000 ) ) ;
#4 = EDGE_CURVE ( 'NONE', #179, #23, #6, .T. ) ;
#5 = CARTESIAN_POINT ( 'NONE',  ( 573.3321103250245900, 166.1386362244096500, 2.500000000000002200 ) ) ;
#6 = LINE ( 'NONE', #17, #51 ) ;
#7 = CLOSED_SHELL ( 'NONE', ( #113, #81, #19, #62, #20 ) ) ;
#8 =( GEOMETRIC_REPRESENTATION_CONTEXT ( 3 ) GLOBAL_UNCERTAINTY_ASSIGNED_CONTEXT ( ( #111 ) ) GLOBAL_UNIT_ASSIGNED_CONTEXT ( ( #185, #104, #178 ) ) REPRESENTATION_CONTEXT ( 'NONE', 'WORKASPACE' ) );
#9 = AXIS2_PLACEMENT_3D ( 'NONE', #132, #145, #131 ) ;
#10 = VECTOR ( 'NONE', #146, 1000.000000000000000 ) ;
#11 = DIRECTION ( 'NONE',  ( -1.000000000000000000, -0.0000000000000000000, -0.0000000000000000000 ) ) ;
#12 = ORIENTED_EDGE ( 'NONE', *, *, #152, .F. ) ;
#13 = DIRECTION ( 'NONE',  ( -1.000000000000000000, -0.0000000000000000000, -0.0000000000000000000 ) ) ;
#14 = EDGE_CURVE ( 'NONE', #179, #137, #34, .T. ) ;
#15 = APPLICATION_CONTEXT ( 'automotive_design' ) ;
#16 = ORIENTED_EDGE ( 'NONE', *, *, #4, .F. ) ;
#17 = CARTESIAN_POINT ( 'NONE',  ( 572.6424455517662900, 166.1386362244096500, -2.500000000000002200 ) ) ;
#18 =( GEOMETRIC_REPRESENTATION_CONTEXT ( 3 ) GLOBAL_UNCERTAINTY_ASSIGNED_CONTEXT ( ( #160 ) ) GLOBAL_UNIT_ASSIGNED_CONTEXT ( ( #26, #171, #58 ) ) REPRESENTATION_CONTEXT ( 'NONE', 'WORKASPACE' ) );
#19 = ADVANCED_FACE ( 'NONE', ( #27 ), #110, .T. ) ;
#20 = ADVANCED_FACE ( 'NONE', ( #166 ), #95, .T. ) ;
#21 = ORIENTED_EDGE ( 'NONE', *, *, #54, .T. ) ;
#22 = DIRECTION ( 'NONE',  ( -0.0000000000000000000, 0.0000000000000000000, -1.000000000000000000 ) ) ;
#23 = VERTEX_POINT ( 'NONE', #170 ) ;
#24 = PRESENTATION_LAYER_ASSIGNMENT (  '', '', ( #80 ) ) ;
#25 = DIRECTION ( 'NONE',  ( -1.000000000000000000, -0.0000000000000000000, -0.0000000000000000000 ) ) ;
#26 =( LENGTH_UNIT ( ) NAMED_UNIT ( * ) SI_UNIT ( .MILLI., .METRE. ) );
#27 = FACE_OUTER_BOUND ( 'NONE', #86, .T. ) ;
#28 = CARTESIAN_POINT ( 'NONE',  ( 573.9921103250246700, 166.1386362244096500, 0.0000000000000000000 ) ) ;
#29 = SURFACE_SIDE_STYLE ('',( #124 ) ) ;
#30 = PRESENTATION_STYLE_ASSIGNMENT (( #76 ) ) ;
#31 = CARTESIAN_POINT ( 'NONE',  ( 573.3321103250245900, 0.0000000000000000000, 0.0000000000000000000 ) ) ;
#32 = CARTESIAN_POINT ( 'NONE',  ( 570.6918722297864400, 166.1386362244097700, 0.0000000000000000000 ) ) ;
#33 = DIRECTION ( 'NONE',  ( -1.000000000000000000, -0.0000000000000000000, -0.0000000000000000000 ) ) ;
#34 = CIRCLE ( 'NONE', #92, 2.500000000000002200 ) ;
#35 = CYLINDRICAL_SURFACE ( 'NONE', #100, 2.500000000000002200 ) ;
#36 = AXIS2_PLACEMENT_3D ( 'NONE', #90, #69, #120 ) ;
#37 = DIRECTION ( 'NONE',  ( -0.0000000000000000000, 0.0000000000000000000, -1.000000000000000000 ) ) ;
#38 = CIRCLE ( 'NONE', #183, 2.500000000000002200 ) ;
#39 = SPHERICAL_SURFACE ( 'NONE', #67, 4.140238095238042400 ) ;
#40 = VERTEX_POINT ( 'NONE', #102 ) ;
#41 = PRODUCT_DEFINITION_SHAPE ( 'NONE', 'NONE',  #85 ) ;
#42 = SURFACE_STYLE_USAGE ( .BOTH. , #89 ) ;
#43 = DIRECTION ( 'NONE',  ( 0.0000000000000000000, 0.0000000000000000000, 1.000000000000000000 ) ) ;
#44 = PRODUCT_CONTEXT ( 'NONE', #163, 'mechanical' ) ;
#45 = CIRCLE ( 'NONE', #64, 2.500000000000002200 ) ;
#46 = ORIENTED_EDGE ( 'NONE', *, *, #181, .T. ) ;
#47 = DIRECTION ( 'NONE',  ( -1.000000000000000000, 0.0000000000000000000, -0.0000000000000000000 ) ) ;
#48 = UNCERTAINTY_MEASURE_WITH_UNIT (LENGTH_MEASURE( 1.000000000000000100E-005 ), #153, 'distance_accuracy_value', 'NONE');
#49 = ADVANCED_BREP_SHAPE_REPRESENTATION ( '100005', ( #134, #63 ), #8 ) ;
#50 = FACE_OUTER_BOUND ( 'NONE', #106, .T. ) ;
#51 = VECTOR ( 'NONE', #33, 1000.000000000000000 ) ;
#52 = AXIS2_PLACEMENT_3D ( 'NONE', #135, #13, #105 ) ;
#53 = CARTESIAN_POINT ( 'NONE',  ( 572.6424455517662900, 166.1386362244096500, 0.0000000000000000000 ) ) ;
#54 = EDGE_CURVE ( 'NONE', #97, #179, #45, .T. ) ;
#55 = VERTEX_POINT ( 'NONE', #5 ) ;
#56 = CARTESIAN_POINT ( 'NONE',  ( 573.3321103250245900, 166.1386362244096500, 0.0000000000000000000 ) ) ;
#57 = PRESENTATION_LAYER_ASSIGNMENT (  '', '', ( #112 ) ) ;
#58 =( NAMED_UNIT ( * ) SI_UNIT ( $, .STERADIAN. ) SOLID_ANGLE_UNIT ( ) );
#59 = LINE ( 'NONE', #133, #10 ) ;
#60 = DIRECTION ( 'NONE',  ( 1.000000000000000000, 0.0000000000000000000, 0.0000000000000000000 ) ) ;
#61 = DIRECTION ( 'NONE',  ( -0.0000000000000000000, 0.0000000000000000000, 1.000000000000000000 ) ) ;
#62 = ADVANCED_FACE ( 'NONE', ( #50 ), #130, .T. ) ;
#63 = AXIS2_PLACEMENT_3D ( 'NONE', #186, #122, #60 ) ;
#64 = AXIS2_PLACEMENT_3D ( 'NONE', #116, #144, #115 ) ;
#65 = EDGE_CURVE ( 'NONE', #40, #55, #59, .T. ) ;
#66 = PRODUCT_DEFINITION_CONTEXT ( 'detailed design', #15, 'design' ) ;
#67 = AXIS2_PLACEMENT_3D ( 'NONE', #32, #22, #128 ) ;
#68 = CIRCLE ( 'NONE', #36, 4.140238095238002500 ) ;
#69 = DIRECTION ( 'NONE',  ( -0.0000000000000000000, 0.0000000000000000000, 1.000000000000000000 ) ) ;
#70 = ORIENTED_EDGE ( 'NONE', *, *, #75, .T. ) ;
#71 = CARTESIAN_POINT ( 'NONE',  ( 573.9921103250246700, 166.1386362244096500, -2.500000000000002200 ) ) ;
#72 = DIRECTION ( 'NONE',  ( 0.0000000000000000000, 0.0000000000000000000, 1.000000000000000000 ) ) ;
#73 = AXIS2_PLACEMENT_3D ( 'NONE', #149, #11, #147 ) ;
#74 = AXIS2_PLACEMENT_3D ( 'NONE', #31, #47, #61 ) ;
#75 = EDGE_CURVE ( 'NONE', #164, #137, #79, .T. ) ;
#76 = SURFACE_STYLE_USAGE ( .BOTH. , #29 ) ;
#77 = CARTESIAN_POINT ( 'NONE',  ( 573.9921103250246700, 166.1386362244096500, 0.0000000000000000000 ) ) ;
#78 = FACE_OUTER_BOUND ( 'NONE', #101, .T. ) ;
#79 = CIRCLE ( 'NONE', #175, 4.140238095238030000 ) ;
#80 = STYLED_ITEM ( 'NONE', ( #30 ), #49 ) ;
#81 = ADVANCED_FACE ( 'NONE', ( #78 ), #39, .T. ) ;
#82 = CARTESIAN_POINT ( 'NONE',  ( 570.6918722297864400, 166.1386362244097700, 0.0000000000000000000 ) ) ;
#83 = ORIENTED_EDGE ( 'NONE', *, *, #181, .F. ) ;
#84 = ORIENTED_EDGE ( 'NONE', *, *, #177, .T. ) ;
#85 = PRODUCT_DEFINITION ( 'Î´Öª', '', #180, #66 ) ;
#86 = EDGE_LOOP ( 'NONE', ( #99, #158 ) ) ;
#87 = ORIENTED_EDGE ( 'NONE', *, *, #75, .F. ) ;
#88 = MECHANICAL_DESIGN_GEOMETRIC_PRESENTATION_REPRESENTATION (  '', ( #80 ), #150 ) ;
#89 = SURFACE_SIDE_STYLE ('',( #155 ) ) ;
#90 = CARTESIAN_POINT ( 'NONE',  ( 570.6918722297864400, 166.1386362244097700, 0.0000000000000000000 ) ) ;
#91 = FILL_AREA_STYLE ('',( #109 ) ) ;
#92 = AXIS2_PLACEMENT_3D ( 'NONE', #77, #96, #126 ) ;
#93 = ORIENTED_EDGE ( 'NONE', *, *, #65, .F. ) ;
#94 = DIRECTION ( 'NONE',  ( -1.000000000000000000, -0.0000000000000000000, -0.0000000000000000000 ) ) ;
#95 = CYLINDRICAL_SURFACE ( 'NONE', #9, 2.500000000000002200 ) ;
#96 = DIRECTION ( 'NONE',  ( -1.000000000000000000, -0.0000000000000000000, -0.0000000000000000000 ) ) ;
#97 = VERTEX_POINT ( 'NONE', #168 ) ;
#98 = CIRCLE ( 'NONE', #52, 2.500000000000002200 ) ;
#99 = ORIENTED_EDGE ( 'NONE', *, *, #152, .T. ) ;
#100 = AXIS2_PLACEMENT_3D ( 'NONE', #53, #94, #127 ) ;
#101 = EDGE_LOOP ( 'NONE', ( #140, #70, #182, #167 ) ) ;
#102 = CARTESIAN_POINT ( 'NONE',  ( 573.9921103250246700, 166.1386362244096500, 2.500000000000002200 ) ) ;
#103 = PRODUCT ( '100005', '100005', '', ( #44 ) ) ;
#104 =( NAMED_UNIT ( * ) PLANE_ANGLE_UNIT ( ) SI_UNIT ( $, .RADIAN. ) );
#105 = DIRECTION ( 'NONE',  ( 0.0000000000000000000, 0.0000000000000000000, 1.000000000000000000 ) ) ;
#106 = EDGE_LOOP ( 'NONE', ( #87, #84, #176, #83 ) ) ;
#107 = SHAPE_DEFINITION_REPRESENTATION ( #41, #49 ) ;
#108 = APPLICATION_PROTOCOL_DEFINITION ( 'draft international standard', 'automotive_design', 1998, #15 ) ;
#109 = FILL_AREA_STYLE_COLOUR ( '', #156 ) ;
#110 = PLANE ( 'NONE',  #74 ) ;
#111 = UNCERTAINTY_MEASURE_WITH_UNIT (LENGTH_MEASURE( 1.000000000000000100E-005 ), #185, 'distance_accuracy_value', 'NONE');
#112 = STYLED_ITEM ( 'NONE', ( #117 ), #134 ) ;
#113 = ADVANCED_FACE ( 'NONE', ( #119 ), #35, .T. ) ;
#114 = FILL_AREA_STYLE_COLOUR ( '', #184 ) ;
#115 = DIRECTION ( 'NONE',  ( 0.0000000000000000000, 0.0000000000000000000, 1.000000000000000000 ) ) ;
#116 = CARTESIAN_POINT ( 'NONE',  ( 573.9921103250246700, 166.1386362244096500, 0.0000000000000000000 ) ) ;
#117 = PRESENTATION_STYLE_ASSIGNMENT (( #42 ) ) ;
#118 = ORIENTED_EDGE ( 'NONE', *, *, #14, .T. ) ;
#119 = FACE_OUTER_BOUND ( 'NONE', #2, .T. ) ;
#120 = DIRECTION ( 'NONE',  ( 1.000000000000000000, 0.0000000000000000000, 0.0000000000000000000 ) ) ;
#121 = MECHANICAL_DESIGN_GEOMETRIC_PRESENTATION_REPRESENTATION (  '', ( #112 ), #18 ) ;
#122 = DIRECTION ( 'NONE',  ( 0.0000000000000000000, 0.0000000000000000000, 1.000000000000000000 ) ) ;
#123 =( NAMED_UNIT ( * ) SI_UNIT ( $, .STERADIAN. ) SOLID_ANGLE_UNIT ( ) );
#124 = SURFACE_STYLE_FILL_AREA ( #91 ) ;
#125 = ORIENTED_EDGE ( 'NONE', *, *, #65, .T. ) ;
#126 = DIRECTION ( 'NONE',  ( 0.0000000000000000000, 0.0000000000000000000, 1.000000000000000000 ) ) ;
#127 = DIRECTION ( 'NONE',  ( 0.0000000000000000000, 0.0000000000000000000, 1.000000000000000000 ) ) ;
#128 = DIRECTION ( 'NONE',  ( 0.0000000000000000000, 1.000000000000000000, 0.0000000000000000000 ) ) ;
#129 = AXIS2_PLACEMENT_3D ( 'NONE', #143, #37, #3 ) ;
#130 = SPHERICAL_SURFACE ( 'NONE', #129, 4.140238095238042400 ) ;
#131 = DIRECTION ( 'NONE',  ( 0.0000000000000000000, 0.0000000000000000000, 1.000000000000000000 ) ) ;
#132 = CARTESIAN_POINT ( 'NONE',  ( 572.6424455517662900, 166.1386362244096500, 0.0000000000000000000 ) ) ;
#133 = CARTESIAN_POINT ( 'NONE',  ( 572.6424455517662900, 166.1386362244096500, 2.500000000000002200 ) ) ;
#134 = MANIFOLD_SOLID_BREP ( 'Ðý×ª1', #7 ) ;
#135 = CARTESIAN_POINT ( 'NONE',  ( 573.9921103250246700, 166.1386362244096500, 0.0000000000000000000 ) ) ;
#136 = FILL_AREA_STYLE ('',( #114 ) ) ;
#137 = VERTEX_POINT ( 'NONE', #162 ) ;
#138 = CIRCLE ( 'NONE', #73, 2.500000000000002200 ) ;
#139 = ORIENTED_EDGE ( 'NONE', *, *, #4, .T. ) ;
#140 = ORIENTED_EDGE ( 'NONE', *, *, #177, .F. ) ;
#141 = AXIS2_PLACEMENT_3D ( 'NONE', #56, #151, #72 ) ;
#142 = DIRECTION ( 'NONE',  ( 0.0000000000000000000, 1.224646799147353200E-016, -1.000000000000000000 ) ) ;
#143 = CARTESIAN_POINT ( 'NONE',  ( 570.6918722297864400, 166.1386362244097700, 0.0000000000000000000 ) ) ;
#144 = DIRECTION ( 'NONE',  ( -1.000000000000000000, -0.0000000000000000000, -0.0000000000000000000 ) ) ;
#145 = DIRECTION ( 'NONE',  ( -1.000000000000000000, -0.0000000000000000000, -0.0000000000000000000 ) ) ;
#146 = DIRECTION ( 'NONE',  ( -1.000000000000000000, -0.0000000000000000000, -0.0000000000000000000 ) ) ;
#147 = DIRECTION ( 'NONE',  ( 0.0000000000000000000, 0.0000000000000000000, 1.000000000000000000 ) ) ;
#148 = ORIENTED_EDGE ( 'NONE', *, *, #173, .F. ) ;
#149 = CARTESIAN_POINT ( 'NONE',  ( 573.3321103250245900, 166.1386362244096500, 0.0000000000000000000 ) ) ;
#150 =( GEOMETRIC_REPRESENTATION_CONTEXT ( 3 ) GLOBAL_UNCERTAINTY_ASSIGNED_CONTEXT ( ( #48 ) ) GLOBAL_UNIT_ASSIGNED_CONTEXT ( ( #153, #174, #123 ) ) REPRESENTATION_CONTEXT ( 'NONE', 'WORKASPACE' ) );
#151 = DIRECTION ( 'NONE',  ( -1.000000000000000000, -0.0000000000000000000, -0.0000000000000000000 ) ) ;
#152 = EDGE_CURVE ( 'NONE', #55, #23, #138, .T. ) ;
#153 =( LENGTH_UNIT ( ) NAMED_UNIT ( * ) SI_UNIT ( .MILLI., .METRE. ) );
#154 = CIRCLE ( 'NONE', #141, 2.500000000000002200 ) ;
#155 = SURFACE_STYLE_FILL_AREA ( #136 ) ;
#156 = COLOUR_RGB ( '',1.000000000000000000, 1.000000000000000000, 1.000000000000000000 ) ;
#157 = DIRECTION ( 'NONE',  ( 0.0000000000000000000, 1.000000000000000000, 1.224646799147356900E-016 ) ) ;
#158 = ORIENTED_EDGE ( 'NONE', *, *, #173, .T. ) ;
#159 = EDGE_CURVE ( 'NONE', #40, #97, #38, .T. ) ;
#160 = UNCERTAINTY_MEASURE_WITH_UNIT (LENGTH_MEASURE( 1.000000000000000100E-005 ), #26, 'distance_accuracy_value', 'NONE');
#161 = EDGE_LOOP ( 'NONE', ( #16, #118, #46, #125, #148 ) ) ;
#162 = CARTESIAN_POINT ( 'NONE',  ( 573.9921103250246700, 163.6386362244097900, -3.061616997868338800E-016 ) ) ;
#163 = APPLICATION_CONTEXT ( 'automotive_design' ) ;
#164 = VERTEX_POINT ( 'NONE', #172 ) ;
#165 = PRODUCT_RELATED_PRODUCT_CATEGORY ( 'part', '', ( #103 ) ) ;
#166 = FACE_OUTER_BOUND ( 'NONE', #161, .T. ) ;
#167 = ORIENTED_EDGE ( 'NONE', *, *, #54, .F. ) ;
#168 = CARTESIAN_POINT ( 'NONE',  ( 573.9921103250246700, 168.6386362244096500, 0.0000000000000000000 ) ) ;
#169 = ORIENTED_EDGE ( 'NONE', *, *, #159, .T. ) ;
#170 = CARTESIAN_POINT ( 'NONE',  ( 573.3321103250245900, 166.1386362244096500, -2.500000000000002200 ) ) ;
#171 =( NAMED_UNIT ( * ) PLANE_ANGLE_UNIT ( ) SI_UNIT ( $, .RADIAN. ) );
#172 = CARTESIAN_POINT ( 'NONE',  ( 574.8321103250244700, 166.1386362244097700, 0.0000000000000000000 ) ) ;
#173 = EDGE_CURVE ( 'NONE', #23, #55, #154, .T. ) ;
#174 =( NAMED_UNIT ( * ) PLANE_ANGLE_UNIT ( ) SI_UNIT ( $, .RADIAN. ) );
#175 = AXIS2_PLACEMENT_3D ( 'NONE', #82, #142, #157 ) ;
#176 = ORIENTED_EDGE ( 'NONE', *, *, #159, .F. ) ;
#177 = EDGE_CURVE ( 'NONE', #164, #97, #68, .T. ) ;
#178 =( NAMED_UNIT ( * ) SI_UNIT ( $, .STERADIAN. ) SOLID_ANGLE_UNIT ( ) );
#179 = VERTEX_POINT ( 'NONE', #71 ) ;
#180 = PRODUCT_DEFINITION_FORMATION_WITH_SPECIFIED_SOURCE ( 'ÈÎºÎ', '', #103, .NOT_KNOWN. ) ;
#181 = EDGE_CURVE ( 'NONE', #137, #40, #98, .T. ) ;
#182 = ORIENTED_EDGE ( 'NONE', *, *, #14, .F. ) ;
#183 = AXIS2_PLACEMENT_3D ( 'NONE', #28, #25, #43 ) ;
#184 = COLOUR_RGB ( '',1.000000000000000000, 1.000000000000000000, 1.000000000000000000 ) ;
#185 =( LENGTH_UNIT ( ) NAMED_UNIT ( * ) SI_UNIT ( .MILLI., .METRE. ) );
#186 = CARTESIAN_POINT ( 'NONE',  ( 0.0000000000000000000, 0.0000000000000000000, 0.0000000000000000000 ) ) ;
ENDSEC;
END-ISO-10303-21;
