ISO-10303-21;
HEADER;
FILE_DESCRIPTION (( 'STEP AP214' ),
    '1' );
FILE_NAME ('100008.STEP',
    '2019-04-19T05:54:16',
    ( '' ),
    ( '' ),
    'SwSTEP 2.0',
    'SolidWorks 2016',
    '' );
FILE_SCHEMA (( 'AUTOMOTIVE_DESIGN' ));
ENDSEC;

DATA;
#1 = FACE_OUTER_BOUND ( 'NONE', #95, .T. ) ;
#2 = DIRECTION ( 'NONE',  ( 0.0000000000000000000, 0.0000000000000000000, 1.000000000000000000 ) ) ;
#3 =( GEOMETRIC_REPRESENTATION_CONTEXT ( 3 ) GLOBAL_UNCERTAINTY_ASSIGNED_CONTEXT ( ( #60 ) ) GLOBAL_UNIT_ASSIGNED_CONTEXT ( ( #103, #64, #170 ) ) REPRESENTATION_CONTEXT ( 'NONE', 'WORKASPACE' ) );
#4 = VERTEX_POINT ( 'NONE', #141 ) ;
#5 = SPHERICAL_SURFACE ( 'NONE', #153, 6.460304878048726000 ) ;
#6 = DIRECTION ( 'NONE',  ( 0.0000000000000000000, 0.0000000000000000000, -1.000000000000000000 ) ) ;
#7 = CARTESIAN_POINT ( 'NONE',  ( 512.4732075808494800, 162.5922594581337800, 0.0000000000000000000 ) ) ;
#8 = VERTEX_POINT ( 'NONE', #110 ) ;
#9 = EDGE_CURVE ( 'NONE', #4, #113, #182, .T. ) ;
#10 = ORIENTED_EDGE ( 'NONE', *, *, #57, .F. ) ;
#11 = APPLICATION_PROTOCOL_DEFINITION ( 'draft international standard', 'automotive_design', 1998, #169 ) ;
#12 = MECHANICAL_DESIGN_GEOMETRIC_PRESENTATION_REPRESENTATION (  '', ( #159 ), #120 ) ;
#13 = MANIFOLD_SOLID_BREP ( 'Ðý×ª1', #130 ) ;
#14 = SURFACE_STYLE_USAGE ( .BOTH. , #53 ) ;
#15 = ORIENTED_EDGE ( 'NONE', *, *, #47, .T. ) ;
#16 = ORIENTED_EDGE ( 'NONE', *, *, #17, .T. ) ;
#17 = EDGE_CURVE ( 'NONE', #8, #62, #138, .T. ) ;
#18 = CARTESIAN_POINT ( 'NONE',  ( 512.4732075808494800, 162.5922594581337800, 0.0000000000000000000 ) ) ;
#19 = EDGE_LOOP ( 'NONE', ( #117, #158, #100, #10 ) ) ;
#20 = CARTESIAN_POINT ( 'NONE',  ( 510.9932075808495100, 162.5922594581337800, 0.0000000000000000000 ) ) ;
#21 = CARTESIAN_POINT ( 'NONE',  ( 0.0000000000000000000, 0.0000000000000000000, 0.0000000000000000000 ) ) ;
#22 = EDGE_LOOP ( 'NONE', ( #152, #29, #148, #84, #97 ) ) ;
#23 = DIRECTION ( 'NONE',  ( 0.0000000000000000000, 0.0000000000000000000, 1.000000000000000000 ) ) ;
#24 = AXIS2_PLACEMENT_3D ( 'NONE', #55, #76, #6 ) ;
#25 = SHAPE_DEFINITION_REPRESENTATION ( #61, #121 ) ;
#26 =( NAMED_UNIT ( * ) PLANE_ANGLE_UNIT ( ) SI_UNIT ( $, .RADIAN. ) );
#27 = CARTESIAN_POINT ( 'NONE',  ( 510.9932075808495100, 162.5922594581337800, 3.149999999999986100 ) ) ;
#28 = DIRECTION ( 'NONE',  ( -0.0000000000000000000, 0.0000000000000000000, 1.000000000000000000 ) ) ;
#29 = ORIENTED_EDGE ( 'NONE', *, *, #172, .T. ) ;
#30 = PRODUCT ( '100008', '100008', '', ( #63 ) ) ;
#31 = STYLED_ITEM ( 'NONE', ( #82 ), #121 ) ;
#32 = CIRCLE ( 'NONE', #86, 3.149999999999986100 ) ;
#33 = EDGE_CURVE ( 'NONE', #4, #88, #112, .T. ) ;
#34 = CARTESIAN_POINT ( 'NONE',  ( 510.9932075808495100, 162.5922594581337800, 0.0000000000000000000 ) ) ;
#35 = DIRECTION ( 'NONE',  ( -1.000000000000000000, -0.0000000000000000000, -0.0000000000000000000 ) ) ;
#36 = CARTESIAN_POINT ( 'NONE',  ( 492.7766277449105100, 162.5922594581337800, 0.0000000000000000000 ) ) ;
#37 = ORIENTED_EDGE ( 'NONE', *, *, #9, .T. ) ;
#38 = DIRECTION ( 'NONE',  ( -1.000000000000000000, -0.0000000000000000000, -0.0000000000000000000 ) ) ;
#39 = CARTESIAN_POINT ( 'NONE',  ( 506.8329027028007700, 162.5922594581336700, 0.0000000000000000000 ) ) ;
#40 = FACE_OUTER_BOUND ( 'NONE', #22, .T. ) ;
#41 = AXIS2_PLACEMENT_3D ( 'NONE', #174, #28, #173 ) ;
#42 = LINE ( 'NONE', #135, #58 ) ;
#43 = CIRCLE ( 'NONE', #107, 3.149999999999986100 ) ;
#44 = FILL_AREA_STYLE ('',( #171 ) ) ;
#45 = PRESENTATION_LAYER_ASSIGNMENT (  '', '', ( #31 ) ) ;
#46 = DIRECTION ( 'NONE',  ( -1.000000000000000000, -0.0000000000000000000, -0.0000000000000000000 ) ) ;
#47 = EDGE_CURVE ( 'NONE', #62, #146, #75, .T. ) ;
#48 = COLOUR_RGB ( '',1.000000000000000000, 1.000000000000000000, 1.000000000000000000 ) ;
#49 = DIRECTION ( 'NONE',  ( 0.0000000000000000000, 1.224646799147353200E-016, -1.000000000000000000 ) ) ;
#50 = ORIENTED_EDGE ( 'NONE', *, *, #131, .F. ) ;
#51 = EDGE_CURVE ( 'NONE', #146, #62, #176, .T. ) ;
#52 =( GEOMETRIC_REPRESENTATION_CONTEXT ( 3 ) GLOBAL_UNCERTAINTY_ASSIGNED_CONTEXT ( ( #132 ) ) GLOBAL_UNIT_ASSIGNED_CONTEXT ( ( #80, #26, #94 ) ) REPRESENTATION_CONTEXT ( 'NONE', 'WORKASPACE' ) );
#53 = SURFACE_SIDE_STYLE ('',( #161 ) ) ;
#54 = ORIENTED_EDGE ( 'NONE', *, *, #131, .T. ) ;
#55 = CARTESIAN_POINT ( 'NONE',  ( 510.9932075808495100, 162.5922594581337800, 0.0000000000000000000 ) ) ;
#56 = AXIS2_PLACEMENT_3D ( 'NONE', #36, #122, #124 ) ;
#57 = EDGE_CURVE ( 'NONE', #113, #8, #32, .T. ) ;
#58 = VECTOR ( 'NONE', #162, 1000.000000000000000 ) ;
#59 = ORIENTED_EDGE ( 'NONE', *, *, #51, .F. ) ;
#60 = UNCERTAINTY_MEASURE_WITH_UNIT (LENGTH_MEASURE( 1.000000000000000100E-005 ), #103, 'distance_accuracy_value', 'NONE');
#61 = PRODUCT_DEFINITION_SHAPE ( 'NONE', 'NONE',  #165 ) ;
#62 = VERTEX_POINT ( 'NONE', #27 ) ;
#63 = PRODUCT_CONTEXT ( 'NONE', #169, 'mechanical' ) ;
#64 =( NAMED_UNIT ( * ) PLANE_ANGLE_UNIT ( ) SI_UNIT ( $, .RADIAN. ) );
#65 = EDGE_CURVE ( 'NONE', #8, #88, #43, .T. ) ;
#66 = PRODUCT_DEFINITION_FORMATION_WITH_SPECIFIED_SOURCE ( 'ÈÎºÎ', '', #30, .NOT_KNOWN. ) ;
#67 = ORIENTED_EDGE ( 'NONE', *, *, #72, .F. ) ;
#68 = FILL_AREA_STYLE ('',( #119 ) ) ;
#69 = CARTESIAN_POINT ( 'NONE',  ( 512.4732075808494800, 162.5922594581337800, 0.0000000000000000000 ) ) ;
#70 = DIRECTION ( 'NONE',  ( 0.0000000000000000000, 0.0000000000000000000, 1.000000000000000000 ) ) ;
#71 = COLOUR_RGB ( '',1.000000000000000000, 1.000000000000000000, 1.000000000000000000 ) ;
#72 = EDGE_CURVE ( 'NONE', #88, #108, #143, .T. ) ;
#73 = CARTESIAN_POINT ( 'NONE',  ( 492.7766277449105100, 162.5922594581337800, 3.149999999999986100 ) ) ;
#74 = DIRECTION ( 'NONE',  ( -1.000000000000000000, -0.0000000000000000000, -0.0000000000000000000 ) ) ;
#75 = CIRCLE ( 'NONE', #109, 3.149999999999986100 ) ;
#76 = DIRECTION ( 'NONE',  ( 1.000000000000000000, 0.0000000000000000000, 0.0000000000000000000 ) ) ;
#77 = PRESENTATION_LAYER_ASSIGNMENT (  '', '', ( #159 ) ) ;
#78 = SURFACE_STYLE_USAGE ( .BOTH. , #79 ) ;
#79 = SURFACE_SIDE_STYLE ('',( #140 ) ) ;
#80 =( LENGTH_UNIT ( ) NAMED_UNIT ( * ) SI_UNIT ( .MILLI., .METRE. ) );
#81 = AXIS2_PLACEMENT_3D ( 'NONE', #7, #35, #90 ) ;
#82 = PRESENTATION_STYLE_ASSIGNMENT (( #78 ) ) ;
#83 = ADVANCED_FACE ( 'NONE', ( #1 ), #115, .T. ) ;
#84 = ORIENTED_EDGE ( 'NONE', *, *, #17, .F. ) ;
#85 = PRESENTATION_STYLE_ASSIGNMENT (( #14 ) ) ;
#86 = AXIS2_PLACEMENT_3D ( 'NONE', #69, #157, #111 ) ;
#87 = CARTESIAN_POINT ( 'NONE',  ( 506.8329027028007700, 162.5922594581336700, 0.0000000000000000000 ) ) ;
#88 = VERTEX_POINT ( 'NONE', #147 ) ;
#89 = DIRECTION ( 'NONE',  ( 0.0000000000000000000, 0.0000000000000000000, 1.000000000000000000 ) ) ;
#90 = DIRECTION ( 'NONE',  ( 0.0000000000000000000, 0.0000000000000000000, 1.000000000000000000 ) ) ;
#91 = ORIENTED_EDGE ( 'NONE', *, *, #172, .F. ) ;
#92 = CYLINDRICAL_SURFACE ( 'NONE', #181, 3.149999999999986100 ) ;
#93 = AXIS2_PLACEMENT_3D ( 'NONE', #136, #74, #179 ) ;
#94 =( NAMED_UNIT ( * ) SI_UNIT ( $, .STERADIAN. ) SOLID_ANGLE_UNIT ( ) );
#95 = EDGE_LOOP ( 'NONE', ( #91, #54, #128, #16, #59 ) ) ;
#96 = APPLICATION_CONTEXT ( 'automotive_design' ) ;
#97 = ORIENTED_EDGE ( 'NONE', *, *, #65, .T. ) ;
#98 = MECHANICAL_DESIGN_GEOMETRIC_PRESENTATION_REPRESENTATION (  '', ( #31 ), #52 ) ;
#99 = FACE_OUTER_BOUND ( 'NONE', #19, .T. ) ;
#100 = ORIENTED_EDGE ( 'NONE', *, *, #65, .F. ) ;
#101 = DIRECTION ( 'NONE',  ( 0.0000000000000000000, 1.000000000000000000, 1.224646799147354700E-016 ) ) ;
#102 = DIRECTION ( 'NONE',  ( -0.0000000000000000000, 0.0000000000000000000, -1.000000000000000000 ) ) ;
#103 =( LENGTH_UNIT ( ) NAMED_UNIT ( * ) SI_UNIT ( .MILLI., .METRE. ) );
#104 = DIRECTION ( 'NONE',  ( 0.0000000000000000000, 1.000000000000000000, 0.0000000000000000000 ) ) ;
#105 = EDGE_LOOP ( 'NONE', ( #156, #37, #50, #67 ) ) ;
#106 = SPHERICAL_SURFACE ( 'NONE', #116, 6.460304878048726000 ) ;
#107 = AXIS2_PLACEMENT_3D ( 'NONE', #18, #134, #23 ) ;
#108 = VERTEX_POINT ( 'NONE', #125 ) ;
#109 = AXIS2_PLACEMENT_3D ( 'NONE', #20, #46, #2 ) ;
#110 = CARTESIAN_POINT ( 'NONE',  ( 512.4732075808494800, 162.5922594581337800, 3.149999999999986100 ) ) ;
#111 = DIRECTION ( 'NONE',  ( 0.0000000000000000000, 0.0000000000000000000, 1.000000000000000000 ) ) ;
#112 = CIRCLE ( 'NONE', #41, 6.460304878048717100 ) ;
#113 = VERTEX_POINT ( 'NONE', #114 ) ;
#114 = CARTESIAN_POINT ( 'NONE',  ( 512.4732075808494800, 159.4422594581336600, -3.857637417314124700E-016 ) ) ;
#115 = CYLINDRICAL_SURFACE ( 'NONE', #56, 3.149999999999986100 ) ;
#116 = AXIS2_PLACEMENT_3D ( 'NONE', #39, #145, #164 ) ;
#117 = ORIENTED_EDGE ( 'NONE', *, *, #9, .F. ) ;
#118 = CIRCLE ( 'NONE', #81, 3.149999999999986100 ) ;
#119 = FILL_AREA_STYLE_COLOUR ( '', #48 ) ;
#120 =( GEOMETRIC_REPRESENTATION_CONTEXT ( 3 ) GLOBAL_UNCERTAINTY_ASSIGNED_CONTEXT ( ( #166 ) ) GLOBAL_UNIT_ASSIGNED_CONTEXT ( ( #186, #175, #144 ) ) REPRESENTATION_CONTEXT ( 'NONE', 'WORKASPACE' ) );
#121 = ADVANCED_BREP_SHAPE_REPRESENTATION ( '100008', ( #13, #137 ), #3 ) ;
#122 = DIRECTION ( 'NONE',  ( -1.000000000000000000, -0.0000000000000000000, -0.0000000000000000000 ) ) ;
#123 = EDGE_LOOP ( 'NONE', ( #15, #167 ) ) ;
#124 = DIRECTION ( 'NONE',  ( 0.0000000000000000000, 0.0000000000000000000, 1.000000000000000000 ) ) ;
#125 = CARTESIAN_POINT ( 'NONE',  ( 512.4732075808494800, 162.5922594581337800, -3.149999999999986100 ) ) ;
#126 = DIRECTION ( 'NONE',  ( 0.0000000000000000000, 0.0000000000000000000, 1.000000000000000000 ) ) ;
#127 = ADVANCED_FACE ( 'NONE', ( #40 ), #92, .T. ) ;
#128 = ORIENTED_EDGE ( 'NONE', *, *, #57, .T. ) ;
#129 = CARTESIAN_POINT ( 'NONE',  ( 510.9932075808495100, 162.5922594581337800, -3.149999999999986100 ) ) ;
#130 = CLOSED_SHELL ( 'NONE', ( #127, #154, #155, #83, #185 ) ) ;
#131 = EDGE_CURVE ( 'NONE', #108, #113, #118, .T. ) ;
#132 = UNCERTAINTY_MEASURE_WITH_UNIT (LENGTH_MEASURE( 1.000000000000000100E-005 ), #80, 'distance_accuracy_value', 'NONE');
#133 = CARTESIAN_POINT ( 'NONE',  ( 506.8329027028007700, 162.5922594581336700, 0.0000000000000000000 ) ) ;
#134 = DIRECTION ( 'NONE',  ( -1.000000000000000000, -0.0000000000000000000, -0.0000000000000000000 ) ) ;
#135 = CARTESIAN_POINT ( 'NONE',  ( 492.7766277449105100, 162.5922594581337800, -3.149999999999986100 ) ) ;
#136 = CARTESIAN_POINT ( 'NONE',  ( 512.4732075808494800, 162.5922594581337800, 0.0000000000000000000 ) ) ;
#137 = AXIS2_PLACEMENT_3D ( 'NONE', #21, #126, #139 ) ;
#138 = LINE ( 'NONE', #73, #142 ) ;
#139 = DIRECTION ( 'NONE',  ( 1.000000000000000000, 0.0000000000000000000, 0.0000000000000000000 ) ) ;
#140 = SURFACE_STYLE_FILL_AREA ( #44 ) ;
#141 = CARTESIAN_POINT ( 'NONE',  ( 513.2932075808495300, 162.5922594581336700, 0.0000000000000000000 ) ) ;
#142 = VECTOR ( 'NONE', #160, 1000.000000000000000 ) ;
#143 = CIRCLE ( 'NONE', #93, 3.149999999999986100 ) ;
#144 =( NAMED_UNIT ( * ) SI_UNIT ( $, .STERADIAN. ) SOLID_ANGLE_UNIT ( ) );
#145 = DIRECTION ( 'NONE',  ( -0.0000000000000000000, 0.0000000000000000000, -1.000000000000000000 ) ) ;
#146 = VERTEX_POINT ( 'NONE', #129 ) ;
#147 = CARTESIAN_POINT ( 'NONE',  ( 512.4732075808494800, 165.7422594581337600, 0.0000000000000000000 ) ) ;
#148 = ORIENTED_EDGE ( 'NONE', *, *, #47, .F. ) ;
#149 = FACE_OUTER_BOUND ( 'NONE', #105, .T. ) ;
#150 = AXIS2_PLACEMENT_3D ( 'NONE', #133, #49, #101 ) ;
#151 = PRODUCT_DEFINITION_CONTEXT ( 'detailed design', #96, 'design' ) ;
#152 = ORIENTED_EDGE ( 'NONE', *, *, #72, .T. ) ;
#153 = AXIS2_PLACEMENT_3D ( 'NONE', #87, #102, #104 ) ;
#154 = ADVANCED_FACE ( 'NONE', ( #149 ), #106, .T. ) ;
#155 = ADVANCED_FACE ( 'NONE', ( #99 ), #5, .T. ) ;
#156 = ORIENTED_EDGE ( 'NONE', *, *, #33, .F. ) ;
#157 = DIRECTION ( 'NONE',  ( -1.000000000000000000, -0.0000000000000000000, -0.0000000000000000000 ) ) ;
#158 = ORIENTED_EDGE ( 'NONE', *, *, #33, .T. ) ;
#159 = STYLED_ITEM ( 'NONE', ( #85 ), #13 ) ;
#160 = DIRECTION ( 'NONE',  ( -1.000000000000000000, -0.0000000000000000000, -0.0000000000000000000 ) ) ;
#161 = SURFACE_STYLE_FILL_AREA ( #68 ) ;
#162 = DIRECTION ( 'NONE',  ( -1.000000000000000000, -0.0000000000000000000, -0.0000000000000000000 ) ) ;
#163 = CARTESIAN_POINT ( 'NONE',  ( 492.7766277449105100, 162.5922594581337800, 0.0000000000000000000 ) ) ;
#164 = DIRECTION ( 'NONE',  ( 0.0000000000000000000, 1.000000000000000000, 0.0000000000000000000 ) ) ;
#165 = PRODUCT_DEFINITION ( 'Î´Öª', '', #66, #151 ) ;
#166 = UNCERTAINTY_MEASURE_WITH_UNIT (LENGTH_MEASURE( 1.000000000000000100E-005 ), #186, 'distance_accuracy_value', 'NONE');
#167 = ORIENTED_EDGE ( 'NONE', *, *, #51, .T. ) ;
#168 = APPLICATION_PROTOCOL_DEFINITION ( 'draft international standard', 'automotive_design', 1998, #96 ) ;
#169 = APPLICATION_CONTEXT ( 'automotive_design' ) ;
#170 =( NAMED_UNIT ( * ) SI_UNIT ( $, .STERADIAN. ) SOLID_ANGLE_UNIT ( ) );
#171 = FILL_AREA_STYLE_COLOUR ( '', #71 ) ;
#172 = EDGE_CURVE ( 'NONE', #108, #146, #42, .T. ) ;
#173 = DIRECTION ( 'NONE',  ( 1.000000000000000000, 0.0000000000000000000, 0.0000000000000000000 ) ) ;
#174 = CARTESIAN_POINT ( 'NONE',  ( 506.8329027028007700, 162.5922594581336700, 0.0000000000000000000 ) ) ;
#175 =( NAMED_UNIT ( * ) PLANE_ANGLE_UNIT ( ) SI_UNIT ( $, .RADIAN. ) );
#176 = CIRCLE ( 'NONE', #184, 3.149999999999986100 ) ;
#177 = PRODUCT_RELATED_PRODUCT_CATEGORY ( 'part', '', ( #30 ) ) ;
#178 = DIRECTION ( 'NONE',  ( -1.000000000000000000, -0.0000000000000000000, -0.0000000000000000000 ) ) ;
#179 = DIRECTION ( 'NONE',  ( 0.0000000000000000000, 0.0000000000000000000, 1.000000000000000000 ) ) ;
#180 = PLANE ( 'NONE',  #24 ) ;
#181 = AXIS2_PLACEMENT_3D ( 'NONE', #163, #38, #89 ) ;
#182 = CIRCLE ( 'NONE', #150, 6.460304878048717100 ) ;
#183 = FACE_OUTER_BOUND ( 'NONE', #123, .T. ) ;
#184 = AXIS2_PLACEMENT_3D ( 'NONE', #34, #178, #70 ) ;
#185 = ADVANCED_FACE ( 'NONE', ( #183 ), #180, .F. ) ;
#186 =( LENGTH_UNIT ( ) NAMED_UNIT ( * ) SI_UNIT ( .MILLI., .METRE. ) );
ENDSEC;
END-ISO-10303-21;
