ISO-10303-21;
HEADER;
FILE_DESCRIPTION (( 'STEP AP214' ),
    '1' );
FILE_NAME ('100018.STEP',
    '2019-04-19T08:04:41',
    ( '' ),
    ( '' ),
    'SwSTEP 2.0',
    'SolidWorks 2016',
    '' );
FILE_SCHEMA (( 'AUTOMOTIVE_DESIGN' ));
ENDSEC;

DATA;
#1 = DIRECTION ( 'NONE',  ( 0.0000000000000000000, 0.0000000000000000000, 1.000000000000000000 ) ) ;
#2 = ADVANCED_FACE ( 'NONE', ( #132 ), #129, .T. ) ;
#3 = CIRCLE ( 'NONE', #112, 4.999999999999976900 ) ;
#4 = ORIENTED_EDGE ( 'NONE', *, *, #27, .F. ) ;
#5 = AXIS2_PLACEMENT_3D ( 'NONE', #163, #29, #149 ) ;
#6 = MECHANICAL_DESIGN_GEOMETRIC_PRESENTATION_REPRESENTATION (  '', ( #56 ), #179 ) ;
#7 = ORIENTED_EDGE ( 'NONE', *, *, #183, .T. ) ;
#8 = STYLED_ITEM ( 'NONE', ( #89 ), #171 ) ;
#9 = CARTESIAN_POINT ( 'NONE',  ( 711.8133978322990700, 247.8153617256588500, 0.0000000000000000000 ) ) ;
#10 = VERTEX_POINT ( 'NONE', #88 ) ;
#11 = PRODUCT_DEFINITION_FORMATION_WITH_SPECIFIED_SOURCE ( 'ÈÎºÎ', '', #145, .NOT_KNOWN. ) ;
#12 =( NAMED_UNIT ( * ) PLANE_ANGLE_UNIT ( ) SI_UNIT ( $, .RADIAN. ) );
#13 = CIRCLE ( 'NONE', #146, 4.999999999999976900 ) ;
#14 =( GEOMETRIC_REPRESENTATION_CONTEXT ( 3 ) GLOBAL_UNCERTAINTY_ASSIGNED_CONTEXT ( ( #35 ) ) GLOBAL_UNIT_ASSIGNED_CONTEXT ( ( #113, #12, #96 ) ) REPRESENTATION_CONTEXT ( 'NONE', 'WORKASPACE' ) );
#15 = ORIENTED_EDGE ( 'NONE', *, *, #27, .T. ) ;
#16 = MECHANICAL_DESIGN_GEOMETRIC_PRESENTATION_REPRESENTATION (  '', ( #8 ), #79 ) ;
#17 = SPHERICAL_SURFACE ( 'NONE', #5, 16.21130222595539600 ) ;
#18 = ORIENTED_EDGE ( 'NONE', *, *, #22, .F. ) ;
#19 = DIRECTION ( 'NONE',  ( -1.000000000000000000, -0.0000000000000000000, -0.0000000000000000000 ) ) ;
#20 = PRESENTATION_STYLE_ASSIGNMENT (( #23 ) ) ;
#21 = CARTESIAN_POINT ( 'NONE',  ( 714.5549184063663700, 242.8153617256591600, -6.123233995736615400E-016 ) ) ;
#22 = EDGE_CURVE ( 'NONE', #10, #127, #54, .T. ) ;
#23 = SURFACE_STYLE_USAGE ( .BOTH. , #111 ) ;
#24 = EDGE_LOOP ( 'NONE', ( #15, #104, #60, #160, #128 ) ) ;
#25 = PRODUCT_RELATED_PRODUCT_CATEGORY ( 'part', '', ( #145 ) ) ;
#26 = ORIENTED_EDGE ( 'NONE', *, *, #100, .F. ) ;
#27 = EDGE_CURVE ( 'NONE', #127, #177, #40, .T. ) ;
#28 = VECTOR ( 'NONE', #178, 1000.000000000000000 ) ;
#29 = DIRECTION ( 'NONE',  ( -0.0000000000000000000, 0.0000000000000000000, -1.000000000000000000 ) ) ;
#30 = CARTESIAN_POINT ( 'NONE',  ( 714.5549184063663700, 247.8153617256588500, 0.0000000000000000000 ) ) ;
#31 = CARTESIAN_POINT ( 'NONE',  ( 711.8133978322990700, 247.8153617256588500, -4.999999999999976900 ) ) ;
#32 = DIRECTION ( 'NONE',  ( -1.000000000000000000, -0.0000000000000000000, -0.0000000000000000000 ) ) ;
#33 = CARTESIAN_POINT ( 'NONE',  ( 713.0449184063663800, 247.8153617256588200, 0.0000000000000000000 ) ) ;
#34 =( NAMED_UNIT ( * ) SI_UNIT ( $, .STERADIAN. ) SOLID_ANGLE_UNIT ( ) );
#35 = UNCERTAINTY_MEASURE_WITH_UNIT (LENGTH_MEASURE( 1.000000000000000100E-005 ), #113, 'distance_accuracy_value', 'NONE');
#36 = AXIS2_PLACEMENT_3D ( 'NONE', #30, #105, #161 ) ;
#37 = PRODUCT_DEFINITION_CONTEXT ( 'detailed design', #152, 'design' ) ;
#38 = DIRECTION ( 'NONE',  ( -1.000000000000000000, -0.0000000000000000000, -0.0000000000000000000 ) ) ;
#39 = CIRCLE ( 'NONE', #68, 16.21130222595540400 ) ;
#40 = CIRCLE ( 'NONE', #36, 4.999999999999976900 ) ;
#41 = ADVANCED_FACE ( 'NONE', ( #144 ), #53, .T. ) ;
#42 = DIRECTION ( 'NONE',  ( 1.000000000000000000, 0.0000000000000000000, 0.0000000000000000000 ) ) ;
#43 = ORIENTED_EDGE ( 'NONE', *, *, #116, .T. ) ;
#44 = AXIS2_PLACEMENT_3D ( 'NONE', #155, #78, #1 ) ;
#45 = DIRECTION ( 'NONE',  ( -1.000000000000000000, -0.0000000000000000000, -0.0000000000000000000 ) ) ;
#46 = CARTESIAN_POINT ( 'NONE',  ( 699.1339482727701100, 247.8153617256590500, 0.0000000000000000000 ) ) ;
#47 = LINE ( 'NONE', #70, #83 ) ;
#48 = DIRECTION ( 'NONE',  ( 0.0000000000000000000, 0.0000000000000000000, 1.000000000000000000 ) ) ;
#49 = FILL_AREA_STYLE_COLOUR ( '', #153 ) ;
#50 = AXIS2_PLACEMENT_3D ( 'NONE', #65, #107, #181 ) ;
#51 =( NAMED_UNIT ( * ) PLANE_ANGLE_UNIT ( ) SI_UNIT ( $, .RADIAN. ) );
#52 = CARTESIAN_POINT ( 'NONE',  ( 699.1339482727701100, 247.8153617256590500, 0.0000000000000000000 ) ) ;
#53 = CYLINDRICAL_SURFACE ( 'NONE', #106, 4.999999999999976900 ) ;
#54 = CIRCLE ( 'NONE', #50, 16.21130222595535000 ) ;
#55 = APPLICATION_PROTOCOL_DEFINITION ( 'draft international standard', 'automotive_design', 1998, #152 ) ;
#56 = STYLED_ITEM ( 'NONE', ( #20 ), #87 ) ;
#57 = ORIENTED_EDGE ( 'NONE', *, *, #172, .T. ) ;
#58 = COLOUR_RGB ( '',1.000000000000000000, 1.000000000000000000, 1.000000000000000000 ) ;
#59 = ORIENTED_EDGE ( 'NONE', *, *, #183, .F. ) ;
#60 = ORIENTED_EDGE ( 'NONE', *, *, #90, .F. ) ;
#61 = DIRECTION ( 'NONE',  ( -1.000000000000000000, -0.0000000000000000000, -0.0000000000000000000 ) ) ;
#62 = VERTEX_POINT ( 'NONE', #119 ) ;
#63 = DIRECTION ( 'NONE',  ( 0.0000000000000000000, 0.0000000000000000000, 1.000000000000000000 ) ) ;
#64 = AXIS2_PLACEMENT_3D ( 'NONE', #74, #38, #75 ) ;
#65 = CARTESIAN_POINT ( 'NONE',  ( 699.1339482727701100, 247.8153617256590500, 0.0000000000000000000 ) ) ;
#66 = PLANE ( 'NONE',  #157 ) ;
#67 = PRODUCT_CONTEXT ( 'NONE', #170, 'mechanical' ) ;
#68 = AXIS2_PLACEMENT_3D ( 'NONE', #52, #150, #166 ) ;
#69 = ORIENTED_EDGE ( 'NONE', *, *, #22, .T. ) ;
#70 = CARTESIAN_POINT ( 'NONE',  ( 711.8133978322990700, 247.8153617256588500, 4.999999999999976900 ) ) ;
#71 = DIRECTION ( 'NONE',  ( -1.000000000000000000, -0.0000000000000000000, -0.0000000000000000000 ) ) ;
#72 = SURFACE_STYLE_FILL_AREA ( #164 ) ;
#73 = ORIENTED_EDGE ( 'NONE', *, *, #159, .F. ) ;
#74 = CARTESIAN_POINT ( 'NONE',  ( 714.5549184063663700, 247.8153617256588500, 0.0000000000000000000 ) ) ;
#75 = DIRECTION ( 'NONE',  ( 0.0000000000000000000, 0.0000000000000000000, 1.000000000000000000 ) ) ;
#76 = DIRECTION ( 'NONE',  ( 1.000000000000000000, 0.0000000000000000000, 0.0000000000000000000 ) ) ;
#77 = SHAPE_DEFINITION_REPRESENTATION ( #141, #87 ) ;
#78 = DIRECTION ( 'NONE',  ( -1.000000000000000000, -0.0000000000000000000, -0.0000000000000000000 ) ) ;
#79 =( GEOMETRIC_REPRESENTATION_CONTEXT ( 3 ) GLOBAL_UNCERTAINTY_ASSIGNED_CONTEXT ( ( #175 ) ) GLOBAL_UNIT_ASSIGNED_CONTEXT ( ( #185, #51, #34 ) ) REPRESENTATION_CONTEXT ( 'NONE', 'WORKASPACE' ) );
#80 = FACE_OUTER_BOUND ( 'NONE', #133, .T. ) ;
#81 = APPLICATION_PROTOCOL_DEFINITION ( 'draft international standard', 'automotive_design', 1998, #170 ) ;
#82 =( LENGTH_UNIT ( ) NAMED_UNIT ( * ) SI_UNIT ( .MILLI., .METRE. ) );
#83 = VECTOR ( 'NONE', #71, 1000.000000000000000 ) ;
#84 = ADVANCED_FACE ( 'NONE', ( #80 ), #17, .T. ) ;
#85 = EDGE_CURVE ( 'NONE', #62, #122, #47, .T. ) ;
#86 = FACE_OUTER_BOUND ( 'NONE', #137, .T. ) ;
#87 = ADVANCED_BREP_SHAPE_REPRESENTATION ( '100018', ( #171, #182 ), #14 ) ;
#88 = CARTESIAN_POINT ( 'NONE',  ( 715.3452504987254800, 247.8153617256590500, 0.0000000000000000000 ) ) ;
#89 = PRESENTATION_STYLE_ASSIGNMENT (( #92 ) ) ;
#90 = EDGE_CURVE ( 'NONE', #122, #173, #3, .T. ) ;
#91 = ORIENTED_EDGE ( 'NONE', *, *, #85, .T. ) ;
#92 = SURFACE_STYLE_USAGE ( .BOTH. , #184 ) ;
#93 = CIRCLE ( 'NONE', #64, 4.999999999999976900 ) ;
#94 = CARTESIAN_POINT ( 'NONE',  ( 713.0449184063663800, 247.8153617256588500, -4.999999999999976900 ) ) ;
#95 = AXIS2_PLACEMENT_3D ( 'NONE', #46, #180, #108 ) ;
#96 =( NAMED_UNIT ( * ) SI_UNIT ( $, .STERADIAN. ) SOLID_ANGLE_UNIT ( ) );
#97 = ADVANCED_FACE ( 'NONE', ( #165 ), #130, .T. ) ;
#98 = FILL_AREA_STYLE ('',( #110 ) ) ;
#99 = DIRECTION ( 'NONE',  ( 0.0000000000000000000, 0.0000000000000000000, 1.000000000000000000 ) ) ;
#100 = EDGE_CURVE ( 'NONE', #177, #173, #142, .T. ) ;
#101 = CIRCLE ( 'NONE', #109, 4.999999999999976900 ) ;
#102 = ORIENTED_EDGE ( 'NONE', *, *, #103, .F. ) ;
#103 = EDGE_CURVE ( 'NONE', #62, #127, #101, .T. ) ;
#104 = ORIENTED_EDGE ( 'NONE', *, *, #100, .T. ) ;
#105 = DIRECTION ( 'NONE',  ( -1.000000000000000000, -0.0000000000000000000, -0.0000000000000000000 ) ) ;
#106 = AXIS2_PLACEMENT_3D ( 'NONE', #9, #19, #134 ) ;
#107 = DIRECTION ( 'NONE',  ( -0.0000000000000000000, 0.0000000000000000000, 1.000000000000000000 ) ) ;
#108 = DIRECTION ( 'NONE',  ( 0.0000000000000000000, 1.000000000000000000, 0.0000000000000000000 ) ) ;
#109 = AXIS2_PLACEMENT_3D ( 'NONE', #121, #32, #48 ) ;
#110 = FILL_AREA_STYLE_COLOUR ( '', #58 ) ;
#111 = SURFACE_SIDE_STYLE ('',( #131 ) ) ;
#112 = AXIS2_PLACEMENT_3D ( 'NONE', #147, #45, #63 ) ;
#113 =( LENGTH_UNIT ( ) NAMED_UNIT ( * ) SI_UNIT ( .MILLI., .METRE. ) );
#114 = EDGE_LOOP ( 'NONE', ( #26, #7, #43, #91, #169 ) ) ;
#115 = CARTESIAN_POINT ( 'NONE',  ( 0.0000000000000000000, 0.0000000000000000000, 0.0000000000000000000 ) ) ;
#116 = EDGE_CURVE ( 'NONE', #158, #62, #93, .T. ) ;
#117 = CLOSED_SHELL ( 'NONE', ( #97, #84, #2, #41, #140 ) ) ;
#118 = AXIS2_PLACEMENT_3D ( 'NONE', #135, #61, #162 ) ;
#119 = CARTESIAN_POINT ( 'NONE',  ( 714.5549184063663700, 247.8153617256588500, 4.999999999999976900 ) ) ;
#120 = CARTESIAN_POINT ( 'NONE',  ( 713.0449184063663800, 247.8153617256588500, 4.999999999999976900 ) ) ;
#121 = CARTESIAN_POINT ( 'NONE',  ( 714.5549184063663700, 247.8153617256588500, 0.0000000000000000000 ) ) ;
#122 = VERTEX_POINT ( 'NONE', #120 ) ;
#123 = EDGE_LOOP ( 'NONE', ( #73, #69, #102, #154 ) ) ;
#124 =( NAMED_UNIT ( * ) SI_UNIT ( $, .STERADIAN. ) SOLID_ANGLE_UNIT ( ) );
#125 = DIRECTION ( 'NONE',  ( -1.000000000000000000, -0.0000000000000000000, -0.0000000000000000000 ) ) ;
#126 = PRESENTATION_LAYER_ASSIGNMENT (  '', '', ( #8 ) ) ;
#127 = VERTEX_POINT ( 'NONE', #148 ) ;
#128 = ORIENTED_EDGE ( 'NONE', *, *, #103, .T. ) ;
#129 = SPHERICAL_SURFACE ( 'NONE', #95, 16.21130222595539600 ) ;
#130 = CYLINDRICAL_SURFACE ( 'NONE', #118, 4.999999999999976900 ) ;
#131 = SURFACE_STYLE_FILL_AREA ( #98 ) ;
#132 = FACE_OUTER_BOUND ( 'NONE', #123, .T. ) ;
#133 = EDGE_LOOP ( 'NONE', ( #18, #151, #59, #4 ) ) ;
#134 = DIRECTION ( 'NONE',  ( 0.0000000000000000000, 0.0000000000000000000, 1.000000000000000000 ) ) ;
#135 = CARTESIAN_POINT ( 'NONE',  ( 711.8133978322990700, 247.8153617256588500, 0.0000000000000000000 ) ) ;
#136 = DIRECTION ( 'NONE',  ( 0.0000000000000000000, 0.0000000000000000000, -1.000000000000000000 ) ) ;
#137 = EDGE_LOOP ( 'NONE', ( #174, #57 ) ) ;
#138 = CARTESIAN_POINT ( 'NONE',  ( 714.5549184063663700, 247.8153617256588500, -4.999999999999976900 ) ) ;
#139 = UNCERTAINTY_MEASURE_WITH_UNIT (LENGTH_MEASURE( 1.000000000000000100E-005 ), #82, 'distance_accuracy_value', 'NONE');
#140 = ADVANCED_FACE ( 'NONE', ( #86 ), #66, .F. ) ;
#141 = PRODUCT_DEFINITION_SHAPE ( 'NONE', 'NONE',  #168 ) ;
#142 = LINE ( 'NONE', #31, #28 ) ;
#143 = CIRCLE ( 'NONE', #44, 4.999999999999976900 ) ;
#144 = FACE_OUTER_BOUND ( 'NONE', #114, .T. ) ;
#145 = PRODUCT ( '100018', '100018', '', ( #67 ) ) ;
#146 = AXIS2_PLACEMENT_3D ( 'NONE', #156, #125, #99 ) ;
#147 = CARTESIAN_POINT ( 'NONE',  ( 713.0449184063663800, 247.8153617256588500, 0.0000000000000000000 ) ) ;
#148 = CARTESIAN_POINT ( 'NONE',  ( 714.5549184063663700, 252.8153617256587600, 0.0000000000000000000 ) ) ;
#149 = DIRECTION ( 'NONE',  ( 0.0000000000000000000, 1.000000000000000000, 0.0000000000000000000 ) ) ;
#150 = DIRECTION ( 'NONE',  ( 0.0000000000000000000, 1.224646799147353200E-016, -1.000000000000000000 ) ) ;
#151 = ORIENTED_EDGE ( 'NONE', *, *, #159, .T. ) ;
#152 = APPLICATION_CONTEXT ( 'automotive_design' ) ;
#153 = COLOUR_RGB ( '',1.000000000000000000, 1.000000000000000000, 1.000000000000000000 ) ;
#154 = ORIENTED_EDGE ( 'NONE', *, *, #116, .F. ) ;
#155 = CARTESIAN_POINT ( 'NONE',  ( 713.0449184063663800, 247.8153617256588500, 0.0000000000000000000 ) ) ;
#156 = CARTESIAN_POINT ( 'NONE',  ( 714.5549184063663700, 247.8153617256588500, 0.0000000000000000000 ) ) ;
#157 = AXIS2_PLACEMENT_3D ( 'NONE', #33, #76, #136 ) ;
#158 = VERTEX_POINT ( 'NONE', #21 ) ;
#159 = EDGE_CURVE ( 'NONE', #10, #158, #39, .T. ) ;
#160 = ORIENTED_EDGE ( 'NONE', *, *, #85, .F. ) ;
#161 = DIRECTION ( 'NONE',  ( 0.0000000000000000000, 0.0000000000000000000, 1.000000000000000000 ) ) ;
#162 = DIRECTION ( 'NONE',  ( 0.0000000000000000000, 0.0000000000000000000, 1.000000000000000000 ) ) ;
#163 = CARTESIAN_POINT ( 'NONE',  ( 699.1339482727701100, 247.8153617256590500, 0.0000000000000000000 ) ) ;
#164 = FILL_AREA_STYLE ('',( #49 ) ) ;
#165 = FACE_OUTER_BOUND ( 'NONE', #24, .T. ) ;
#166 = DIRECTION ( 'NONE',  ( 0.0000000000000000000, 1.000000000000000000, 1.224646799147352700E-016 ) ) ;
#167 = DIRECTION ( 'NONE',  ( 0.0000000000000000000, 0.0000000000000000000, 1.000000000000000000 ) ) ;
#168 = PRODUCT_DEFINITION ( 'Î´Öª', '', #11, #37 ) ;
#169 = ORIENTED_EDGE ( 'NONE', *, *, #172, .F. ) ;
#170 = APPLICATION_CONTEXT ( 'automotive_design' ) ;
#171 = MANIFOLD_SOLID_BREP ( 'Ðý×ª1', #117 ) ;
#172 = EDGE_CURVE ( 'NONE', #173, #122, #143, .T. ) ;
#173 = VERTEX_POINT ( 'NONE', #94 ) ;
#174 = ORIENTED_EDGE ( 'NONE', *, *, #90, .T. ) ;
#175 = UNCERTAINTY_MEASURE_WITH_UNIT (LENGTH_MEASURE( 1.000000000000000100E-005 ), #185, 'distance_accuracy_value', 'NONE');
#176 = PRESENTATION_LAYER_ASSIGNMENT (  '', '', ( #56 ) ) ;
#177 = VERTEX_POINT ( 'NONE', #138 ) ;
#178 = DIRECTION ( 'NONE',  ( -1.000000000000000000, -0.0000000000000000000, -0.0000000000000000000 ) ) ;
#179 =( GEOMETRIC_REPRESENTATION_CONTEXT ( 3 ) GLOBAL_UNCERTAINTY_ASSIGNED_CONTEXT ( ( #139 ) ) GLOBAL_UNIT_ASSIGNED_CONTEXT ( ( #82, #186, #124 ) ) REPRESENTATION_CONTEXT ( 'NONE', 'WORKASPACE' ) );
#180 = DIRECTION ( 'NONE',  ( -0.0000000000000000000, 0.0000000000000000000, -1.000000000000000000 ) ) ;
#181 = DIRECTION ( 'NONE',  ( 1.000000000000000000, 0.0000000000000000000, 0.0000000000000000000 ) ) ;
#182 = AXIS2_PLACEMENT_3D ( 'NONE', #115, #167, #42 ) ;
#183 = EDGE_CURVE ( 'NONE', #177, #158, #13, .T. ) ;
#184 = SURFACE_SIDE_STYLE ('',( #72 ) ) ;
#185 =( LENGTH_UNIT ( ) NAMED_UNIT ( * ) SI_UNIT ( .MILLI., .METRE. ) );
#186 =( NAMED_UNIT ( * ) PLANE_ANGLE_UNIT ( ) SI_UNIT ( $, .RADIAN. ) );
ENDSEC;
END-ISO-10303-21;
