ISO-10303-21;
HEADER;
FILE_DESCRIPTION (( 'STEP AP214' ),
    '1' );
FILE_NAME ('100028.STEP',
    '2019-04-22T08:04:18',
    ( '' ),
    ( '' ),
    'SwSTEP 2.0',
    'SolidWorks 2016',
    '' );
FILE_SCHEMA (( 'AUTOMOTIVE_DESIGN' ));
ENDSEC;

DATA;
#1 = CARTESIAN_POINT ( 'NONE',  ( 579.5272611621776400, 184.8308585527646800, 8.000000000000007100 ) ) ;
#2 = SURFACE_STYLE_FILL_AREA ( #178 ) ;
#3 = ADVANCED_FACE ( 'NONE', ( #125 ), #118, .F. ) ;
#4 = DIRECTION ( 'NONE',  ( 0.0000000000000000000, 0.0000000000000000000, 1.000000000000000000 ) ) ;
#5 = DIRECTION ( 'NONE',  ( 0.0000000000000000000, 0.0000000000000000000, 1.000000000000000000 ) ) ;
#6 = AXIS2_PLACEMENT_3D ( 'NONE', #117, #127, #47 ) ;
#7 = CARTESIAN_POINT ( 'NONE',  ( 561.9464847646621600, 184.8308585527647100, 0.0000000000000000000 ) ) ;
#8 = UNCERTAINTY_MEASURE_WITH_UNIT (LENGTH_MEASURE( 1.000000000000000100E-005 ), #135, 'distance_accuracy_value', 'NONE');
#9 = EDGE_CURVE ( 'NONE', #59, #42, #150, .T. ) ;
#10 =( GEOMETRIC_REPRESENTATION_CONTEXT ( 3 ) GLOBAL_UNCERTAINTY_ASSIGNED_CONTEXT ( ( #163 ) ) GLOBAL_UNIT_ASSIGNED_CONTEXT ( ( #155, #110, #78 ) ) REPRESENTATION_CONTEXT ( 'NONE', 'WORKASPACE' ) );
#11 = DIRECTION ( 'NONE',  ( 0.0000000000000000000, 0.0000000000000000000, 1.000000000000000000 ) ) ;
#12 = SPHERICAL_SURFACE ( 'NONE', #132, 20.68077639751553000 ) ;
#13 = VECTOR ( 'NONE', #152, 1000.000000000000000 ) ;
#14 = SURFACE_STYLE_FILL_AREA ( #128 ) ;
#15 = STYLED_ITEM ( 'NONE', ( #168 ), #21 ) ;
#16 = VERTEX_POINT ( 'NONE', #1 ) ;
#17 = SURFACE_SIDE_STYLE ('',( #14 ) ) ;
#18 = AXIS2_PLACEMENT_3D ( 'NONE', #111, #24, #23 ) ;
#19 = ORIENTED_EDGE ( 'NONE', *, *, #97, .F. ) ;
#20 = DIRECTION ( 'NONE',  ( 0.0000000000000000000, -1.224646799147353200E-016, 1.000000000000000000 ) ) ;
#21 = ADVANCED_BREP_SHAPE_REPRESENTATION ( '100028', ( #45, #114 ), #10 ) ;
#22 = AXIS2_PLACEMENT_3D ( 'NONE', #162, #56, #69 ) ;
#23 = DIRECTION ( 'NONE',  ( 0.0000000000000000000, 0.0000000000000000000, 1.000000000000000000 ) ) ;
#24 = DIRECTION ( 'NONE',  ( -1.000000000000000000, -0.0000000000000000000, -0.0000000000000000000 ) ) ;
#25 = CIRCLE ( 'NONE', #46, 8.000000000000007100 ) ;
#26 = ORIENTED_EDGE ( 'NONE', *, *, #29, .T. ) ;
#27 = PRODUCT_CONTEXT ( 'NONE', #179, 'mechanical' ) ;
#28 = ORIENTED_EDGE ( 'NONE', *, *, #124, .F. ) ;
#29 = EDGE_CURVE ( 'NONE', #159, #184, #54, .T. ) ;
#30 = PRODUCT_RELATED_PRODUCT_CATEGORY ( 'part', '', ( #31 ) ) ;
#31 = PRODUCT ( '100028', '100028', '', ( #27 ) ) ;
#32 = FACE_OUTER_BOUND ( 'NONE', #130, .T. ) ;
#33 = AXIS2_PLACEMENT_3D ( 'NONE', #57, #133, #51 ) ;
#34 = ORIENTED_EDGE ( 'NONE', *, *, #185, .T. ) ;
#35 = PRODUCT_DEFINITION ( 'Î´Öª', '', #43, #134 ) ;
#36 = DIRECTION ( 'NONE',  ( 1.000000000000000000, 0.0000000000000000000, 0.0000000000000000000 ) ) ;
#37 = CARTESIAN_POINT ( 'NONE',  ( 579.5272611621776400, 184.8308585527646800, 0.0000000000000000000 ) ) ;
#38 = CARTESIAN_POINT ( 'NONE',  ( 575.8019925418153700, 184.8308585527646800, -8.000000000000007100 ) ) ;
#39 = DIRECTION ( 'NONE',  ( 0.0000000000000000000, 0.0000000000000000000, 1.000000000000000000 ) ) ;
#40 = DIRECTION ( 'NONE',  ( -1.000000000000000000, -0.0000000000000000000, -0.0000000000000000000 ) ) ;
#41 =( NAMED_UNIT ( * ) SI_UNIT ( $, .STERADIAN. ) SOLID_ANGLE_UNIT ( ) );
#42 = VERTEX_POINT ( 'NONE', #151 ) ;
#43 = PRODUCT_DEFINITION_FORMATION_WITH_SPECIFIED_SOURCE ( 'ÈÎºÎ', '', #31, .NOT_KNOWN. ) ;
#44 = EDGE_CURVE ( 'NONE', #120, #16, #123, .T. ) ;
#45 = MANIFOLD_SOLID_BREP ( 'Ðý×ª1', #112 ) ;
#46 = AXIS2_PLACEMENT_3D ( 'NONE', #121, #180, #66 ) ;
#47 = DIRECTION ( 'NONE',  ( -1.000000000000000000, 0.0000000000000000000, 0.0000000000000000000 ) ) ;
#48 = CYLINDRICAL_SURFACE ( 'NONE', #109, 8.000000000000007100 ) ;
#49 = PRESENTATION_STYLE_ASSIGNMENT (( #104 ) ) ;
#50 =( NAMED_UNIT ( * ) PLANE_ANGLE_UNIT ( ) SI_UNIT ( $, .RADIAN. ) );
#51 = DIRECTION ( 'NONE',  ( 0.0000000000000000000, 0.0000000000000000000, 1.000000000000000000 ) ) ;
#52 = EDGE_CURVE ( 'NONE', #42, #120, #87, .T. ) ;
#53 = CARTESIAN_POINT ( 'NONE',  ( 581.0172611621776500, 184.8308585527646800, 0.0000000000000000000 ) ) ;
#54 = LINE ( 'NONE', #38, #13 ) ;
#55 = DIRECTION ( 'NONE',  ( 0.0000000000000000000, 0.0000000000000000000, 1.000000000000000000 ) ) ;
#56 = DIRECTION ( 'NONE',  ( 0.0000000000000000000, 0.0000000000000000000, 1.000000000000000000 ) ) ;
#57 = CARTESIAN_POINT ( 'NONE',  ( 581.0172611621776500, 184.8308585527646800, 0.0000000000000000000 ) ) ;
#58 = ORIENTED_EDGE ( 'NONE', *, *, #74, .F. ) ;
#59 = VERTEX_POINT ( 'NONE', #141 ) ;
#60 = AXIS2_PLACEMENT_3D ( 'NONE', #37, #36, #89 ) ;
#61 = PRODUCT_DEFINITION_SHAPE ( 'NONE', 'NONE',  #35 ) ;
#62 = ORIENTED_EDGE ( 'NONE', *, *, #124, .T. ) ;
#63 = VERTEX_POINT ( 'NONE', #65 ) ;
#64 = CIRCLE ( 'NONE', #82, 8.000000000000007100 ) ;
#65 = CARTESIAN_POINT ( 'NONE',  ( 581.0172611621776500, 192.8308585527646800, 9.797174393178807900E-016 ) ) ;
#66 = DIRECTION ( 'NONE',  ( 0.0000000000000000000, 0.0000000000000000000, 1.000000000000000000 ) ) ;
#67 = CIRCLE ( 'NONE', #99, 8.000000000000007100 ) ;
#68 = ORIENTED_EDGE ( 'NONE', *, *, #171, .F. ) ;
#69 = DIRECTION ( 'NONE',  ( 0.0000000000000000000, -1.000000000000000000, 0.0000000000000000000 ) ) ;
#70 =( GEOMETRIC_REPRESENTATION_CONTEXT ( 3 ) GLOBAL_UNCERTAINTY_ASSIGNED_CONTEXT ( ( #101 ) ) GLOBAL_UNIT_ASSIGNED_CONTEXT ( ( #175, #50, #90 ) ) REPRESENTATION_CONTEXT ( 'NONE', 'WORKASPACE' ) );
#71 = CYLINDRICAL_SURFACE ( 'NONE', #186, 8.000000000000007100 ) ;
#72 = CARTESIAN_POINT ( 'NONE',  ( 575.8019925418153700, 184.8308585527646800, 0.0000000000000000000 ) ) ;
#73 = ORIENTED_EDGE ( 'NONE', *, *, #171, .T. ) ;
#74 = EDGE_CURVE ( 'NONE', #63, #159, #76, .T. ) ;
#75 =( GEOMETRIC_REPRESENTATION_CONTEXT ( 3 ) GLOBAL_UNCERTAINTY_ASSIGNED_CONTEXT ( ( #8 ) ) GLOBAL_UNIT_ASSIGNED_CONTEXT ( ( #135, #84, #41 ) ) REPRESENTATION_CONTEXT ( 'NONE', 'WORKASPACE' ) );
#76 = CIRCLE ( 'NONE', #33, 8.000000000000007100 ) ;
#77 = VECTOR ( 'NONE', #103, 1000.000000000000000 ) ;
#78 =( NAMED_UNIT ( * ) SI_UNIT ( $, .STERADIAN. ) SOLID_ANGLE_UNIT ( ) );
#79 = STYLED_ITEM ( 'NONE', ( #49 ), #45 ) ;
#80 = DIRECTION ( 'NONE',  ( 0.0000000000000000000, -1.000000000000000000, 0.0000000000000000000 ) ) ;
#81 = CARTESIAN_POINT ( 'NONE',  ( 0.0000000000000000000, 0.0000000000000000000, 0.0000000000000000000 ) ) ;
#82 = AXIS2_PLACEMENT_3D ( 'NONE', #53, #83, #11 ) ;
#83 = DIRECTION ( 'NONE',  ( -1.000000000000000000, -0.0000000000000000000, -0.0000000000000000000 ) ) ;
#84 =( NAMED_UNIT ( * ) PLANE_ANGLE_UNIT ( ) SI_UNIT ( $, .RADIAN. ) );
#85 = ORIENTED_EDGE ( 'NONE', *, *, #44, .T. ) ;
#86 = EDGE_LOOP ( 'NONE', ( #126, #62, #153, #176 ) ) ;
#87 = CIRCLE ( 'NONE', #18, 8.000000000000007100 ) ;
#88 = COLOUR_RGB ( '',1.000000000000000000, 1.000000000000000000, 1.000000000000000000 ) ;
#89 = DIRECTION ( 'NONE',  ( 0.0000000000000000000, 0.0000000000000000000, -1.000000000000000000 ) ) ;
#90 =( NAMED_UNIT ( * ) SI_UNIT ( $, .STERADIAN. ) SOLID_ANGLE_UNIT ( ) );
#91 = SHAPE_DEFINITION_REPRESENTATION ( #61, #21 ) ;
#92 = ORIENTED_EDGE ( 'NONE', *, *, #9, .T. ) ;
#93 = FILL_AREA_STYLE_COLOUR ( '', #88 ) ;
#94 = FILL_AREA_STYLE_COLOUR ( '', #164 ) ;
#95 = SURFACE_SIDE_STYLE ('',( #2 ) ) ;
#96 = FACE_OUTER_BOUND ( 'NONE', #166, .T. ) ;
#97 = EDGE_CURVE ( 'NONE', #16, #184, #122, .T. ) ;
#98 = ORIENTED_EDGE ( 'NONE', *, *, #158, .T. ) ;
#99 = AXIS2_PLACEMENT_3D ( 'NONE', #119, #40, #143 ) ;
#100 = FACE_OUTER_BOUND ( 'NONE', #86, .T. ) ;
#101 = UNCERTAINTY_MEASURE_WITH_UNIT (LENGTH_MEASURE( 1.000000000000000100E-005 ), #175, 'distance_accuracy_value', 'NONE');
#102 = ORIENTED_EDGE ( 'NONE', *, *, #74, .T. ) ;
#103 = DIRECTION ( 'NONE',  ( -1.000000000000000000, -0.0000000000000000000, -0.0000000000000000000 ) ) ;
#104 = SURFACE_STYLE_USAGE ( .BOTH. , #17 ) ;
#105 = ORIENTED_EDGE ( 'NONE', *, *, #52, .T. ) ;
#106 = DIRECTION ( 'NONE',  ( 0.0000000000000000000, -1.000000000000000000, -1.224646799147353000E-016 ) ) ;
#107 = MECHANICAL_DESIGN_GEOMETRIC_PRESENTATION_REPRESENTATION (  '', ( #79 ), #70 ) ;
#108 = SURFACE_STYLE_USAGE ( .BOTH. , #95 ) ;
#109 = AXIS2_PLACEMENT_3D ( 'NONE', #154, #131, #4 ) ;
#110 =( NAMED_UNIT ( * ) PLANE_ANGLE_UNIT ( ) SI_UNIT ( $, .RADIAN. ) );
#111 = CARTESIAN_POINT ( 'NONE',  ( 581.0172611621776500, 184.8308585527646800, 0.0000000000000000000 ) ) ;
#112 = CLOSED_SHELL ( 'NONE', ( #156, #167, #177, #129, #3 ) ) ;
#113 = DIRECTION ( 'NONE',  ( 1.000000000000000000, 0.0000000000000000000, 0.0000000000000000000 ) ) ;
#114 = AXIS2_PLACEMENT_3D ( 'NONE', #81, #136, #113 ) ;
#115 = ORIENTED_EDGE ( 'NONE', *, *, #29, .F. ) ;
#116 = AXIS2_PLACEMENT_3D ( 'NONE', #7, #20, #106 ) ;
#117 = CARTESIAN_POINT ( 'NONE',  ( 561.9464847646621600, 184.8308585527647100, 0.0000000000000000000 ) ) ;
#118 = PLANE ( 'NONE',  #60 ) ;
#119 = CARTESIAN_POINT ( 'NONE',  ( 581.0172611621776500, 184.8308585527646800, 0.0000000000000000000 ) ) ;
#120 = VERTEX_POINT ( 'NONE', #144 ) ;
#121 = CARTESIAN_POINT ( 'NONE',  ( 579.5272611621776400, 184.8308585527646800, 0.0000000000000000000 ) ) ;
#122 = CIRCLE ( 'NONE', #173, 8.000000000000007100 ) ;
#123 = LINE ( 'NONE', #172, #77 ) ;
#124 = EDGE_CURVE ( 'NONE', #59, #63, #174, .T. ) ;
#125 = FACE_OUTER_BOUND ( 'NONE', #137, .T. ) ;
#126 = ORIENTED_EDGE ( 'NONE', *, *, #9, .F. ) ;
#127 = DIRECTION ( 'NONE',  ( 0.0000000000000000000, 0.0000000000000000000, -1.000000000000000000 ) ) ;
#128 = FILL_AREA_STYLE ('',( #93 ) ) ;
#129 = ADVANCED_FACE ( 'NONE', ( #147 ), #48, .T. ) ;
#130 = EDGE_LOOP ( 'NONE', ( #102, #26, #19, #148, #98 ) ) ;
#131 = DIRECTION ( 'NONE',  ( -1.000000000000000000, -0.0000000000000000000, -0.0000000000000000000 ) ) ;
#132 = AXIS2_PLACEMENT_3D ( 'NONE', #157, #55, #80 ) ;
#133 = DIRECTION ( 'NONE',  ( -1.000000000000000000, -0.0000000000000000000, -0.0000000000000000000 ) ) ;
#134 = PRODUCT_DEFINITION_CONTEXT ( 'detailed design', #165, 'design' ) ;
#135 =( LENGTH_UNIT ( ) NAMED_UNIT ( * ) SI_UNIT ( .MILLI., .METRE. ) );
#136 = DIRECTION ( 'NONE',  ( 0.0000000000000000000, 0.0000000000000000000, 1.000000000000000000 ) ) ;
#137 = EDGE_LOOP ( 'NONE', ( #138, #34 ) ) ;
#138 = ORIENTED_EDGE ( 'NONE', *, *, #97, .T. ) ;
#139 = PRESENTATION_LAYER_ASSIGNMENT (  '', '', ( #79 ) ) ;
#140 = PRESENTATION_LAYER_ASSIGNMENT (  '', '', ( #15 ) ) ;
#141 = CARTESIAN_POINT ( 'NONE',  ( 582.6272611621776600, 184.8308585527647100, 0.0000000000000000000 ) ) ;
#142 = CARTESIAN_POINT ( 'NONE',  ( 579.5272611621776400, 184.8308585527646800, 0.0000000000000000000 ) ) ;
#143 = DIRECTION ( 'NONE',  ( 0.0000000000000000000, 0.0000000000000000000, 1.000000000000000000 ) ) ;
#144 = CARTESIAN_POINT ( 'NONE',  ( 581.0172611621776500, 184.8308585527646800, 8.000000000000007100 ) ) ;
#145 = DIRECTION ( 'NONE',  ( -1.000000000000000000, -0.0000000000000000000, -0.0000000000000000000 ) ) ;
#146 = CARTESIAN_POINT ( 'NONE',  ( 581.0172611621776500, 184.8308585527646800, -8.000000000000007100 ) ) ;
#147 = FACE_OUTER_BOUND ( 'NONE', #169, .T. ) ;
#148 = ORIENTED_EDGE ( 'NONE', *, *, #44, .F. ) ;
#149 = MECHANICAL_DESIGN_GEOMETRIC_PRESENTATION_REPRESENTATION (  '', ( #15 ), #75 ) ;
#150 = CIRCLE ( 'NONE', #6, 20.68077639751553300 ) ;
#151 = CARTESIAN_POINT ( 'NONE',  ( 581.0172611621776500, 176.8308585527647100, 0.0000000000000000000 ) ) ;
#152 = DIRECTION ( 'NONE',  ( -1.000000000000000000, -0.0000000000000000000, -0.0000000000000000000 ) ) ;
#153 = ORIENTED_EDGE ( 'NONE', *, *, #158, .F. ) ;
#154 = CARTESIAN_POINT ( 'NONE',  ( 575.8019925418153700, 184.8308585527646800, 0.0000000000000000000 ) ) ;
#155 =( LENGTH_UNIT ( ) NAMED_UNIT ( * ) SI_UNIT ( .MILLI., .METRE. ) );
#156 = ADVANCED_FACE ( 'NONE', ( #32 ), #71, .T. ) ;
#157 = CARTESIAN_POINT ( 'NONE',  ( 561.9464847646621600, 184.8308585527647100, 0.0000000000000000000 ) ) ;
#158 = EDGE_CURVE ( 'NONE', #120, #63, #67, .T. ) ;
#159 = VERTEX_POINT ( 'NONE', #146 ) ;
#160 = DIRECTION ( 'NONE',  ( -1.000000000000000000, -0.0000000000000000000, -0.0000000000000000000 ) ) ;
#161 = CARTESIAN_POINT ( 'NONE',  ( 579.5272611621776400, 184.8308585527646800, -8.000000000000007100 ) ) ;
#162 = CARTESIAN_POINT ( 'NONE',  ( 561.9464847646621600, 184.8308585527647100, 0.0000000000000000000 ) ) ;
#163 = UNCERTAINTY_MEASURE_WITH_UNIT (LENGTH_MEASURE( 1.000000000000000100E-005 ), #155, 'distance_accuracy_value', 'NONE');
#164 = COLOUR_RGB ( '',1.000000000000000000, 1.000000000000000000, 1.000000000000000000 ) ;
#165 = APPLICATION_CONTEXT ( 'automotive_design' ) ;
#166 = EDGE_LOOP ( 'NONE', ( #28, #92, #68, #58 ) ) ;
#167 = ADVANCED_FACE ( 'NONE', ( #100 ), #183, .T. ) ;
#168 = PRESENTATION_STYLE_ASSIGNMENT (( #108 ) ) ;
#169 = EDGE_LOOP ( 'NONE', ( #115, #73, #105, #85, #170 ) ) ;
#170 = ORIENTED_EDGE ( 'NONE', *, *, #185, .F. ) ;
#171 = EDGE_CURVE ( 'NONE', #159, #42, #64, .T. ) ;
#172 = CARTESIAN_POINT ( 'NONE',  ( 575.8019925418153700, 184.8308585527646800, 8.000000000000007100 ) ) ;
#173 = AXIS2_PLACEMENT_3D ( 'NONE', #142, #160, #5 ) ;
#174 = CIRCLE ( 'NONE', #116, 20.68077639751553300 ) ;
#175 =( LENGTH_UNIT ( ) NAMED_UNIT ( * ) SI_UNIT ( .MILLI., .METRE. ) );
#176 = ORIENTED_EDGE ( 'NONE', *, *, #52, .F. ) ;
#177 = ADVANCED_FACE ( 'NONE', ( #96 ), #12, .T. ) ;
#178 = FILL_AREA_STYLE ('',( #94 ) ) ;
#179 = APPLICATION_CONTEXT ( 'automotive_design' ) ;
#180 = DIRECTION ( 'NONE',  ( -1.000000000000000000, -0.0000000000000000000, -0.0000000000000000000 ) ) ;
#181 = APPLICATION_PROTOCOL_DEFINITION ( 'draft international standard', 'automotive_design', 1998, #179 ) ;
#182 = APPLICATION_PROTOCOL_DEFINITION ( 'draft international standard', 'automotive_design', 1998, #165 ) ;
#183 = SPHERICAL_SURFACE ( 'NONE', #22, 20.68077639751553000 ) ;
#184 = VERTEX_POINT ( 'NONE', #161 ) ;
#185 = EDGE_CURVE ( 'NONE', #184, #16, #25, .T. ) ;
#186 = AXIS2_PLACEMENT_3D ( 'NONE', #72, #145, #39 ) ;
ENDSEC;
END-ISO-10303-21;
