ISO-10303-21;
HEADER;
FILE_DESCRIPTION (( 'STEP AP214' ),
    '1' );
FILE_NAME ('100048.STEP',
    '2019-04-29T09:29:28',
    ( '' ),
    ( '' ),
    'SwSTEP 2.0',
    'SolidWorks 2016',
    '' );
FILE_SCHEMA (( 'AUTOMOTIVE_DESIGN' ));
ENDSEC;

DATA;
#1 = EDGE_CURVE ( 'NONE', #28, #19, #152, .T. ) ;
#2 = PRESENTATION_LAYER_ASSIGNMENT (  '', '', ( #172 ) ) ;
#3 = APPLICATION_CONTEXT ( 'automotive_design' ) ;
#4 = DIRECTION ( 'NONE',  ( 0.0000000000000000000, 1.000000000000000000, 0.0000000000000000000 ) ) ;
#5 = DIRECTION ( 'NONE',  ( 1.000000000000000000, 0.0000000000000000000, 0.0000000000000000000 ) ) ;
#6 = PRESENTATION_STYLE_ASSIGNMENT (( #55 ) ) ;
#7 = AXIS2_PLACEMENT_3D ( 'NONE', #37, #12, #11 ) ;
#8 = FACE_OUTER_BOUND ( 'NONE', #104, .T. ) ;
#9 = DIRECTION ( 'NONE',  ( -0.0000000000000000000, 0.0000000000000000000, -1.000000000000000000 ) ) ;
#10 = MANIFOLD_SOLID_BREP ( 'Ðý×ª1', #160 ) ;
#11 = DIRECTION ( 'NONE',  ( 0.0000000000000000000, 0.0000000000000000000, 1.000000000000000000 ) ) ;
#12 = DIRECTION ( 'NONE',  ( -1.000000000000000000, -0.0000000000000000000, -0.0000000000000000000 ) ) ;
#13 = PRODUCT_CONTEXT ( 'NONE', #3, 'mechanical' ) ;
#14 = ORIENTED_EDGE ( 'NONE', *, *, #60, .T. ) ;
#15 =( LENGTH_UNIT ( ) NAMED_UNIT ( * ) SI_UNIT ( .MILLI., .METRE. ) );
#16 = CARTESIAN_POINT ( 'NONE',  ( 404.9166708976999300, 132.6730482983460600, 0.0000000000000000000 ) ) ;
#17 = SURFACE_STYLE_FILL_AREA ( #34 ) ;
#18 = CIRCLE ( 'NONE', #135, 128.3787704918031200 ) ;
#19 = VERTEX_POINT ( 'NONE', #49 ) ;
#20 = AXIS2_PLACEMENT_3D ( 'NONE', #101, #27, #68 ) ;
#21 = PRODUCT ( '100048', '100048', '', ( #13 ) ) ;
#22 = VERTEX_POINT ( 'NONE', #61 ) ;
#23 =( NAMED_UNIT ( * ) PLANE_ANGLE_UNIT ( ) SI_UNIT ( $, .RADIAN. ) );
#24 = ORIENTED_EDGE ( 'NONE', *, *, #1, .T. ) ;
#25 = PRODUCT_DEFINITION_SHAPE ( 'NONE', 'NONE',  #161 ) ;
#26 = CARTESIAN_POINT ( 'NONE',  ( 277.1479004058967900, 132.6730482983459200, 0.0000000000000000000 ) ) ;
#27 = DIRECTION ( 'NONE',  ( 1.000000000000000000, 0.0000000000000000000, 0.0000000000000000000 ) ) ;
#28 = VERTEX_POINT ( 'NONE', #168 ) ;
#29 = EDGE_CURVE ( 'NONE', #75, #19, #163, .T. ) ;
#30 = AXIS2_PLACEMENT_3D ( 'NONE', #26, #9, #36 ) ;
#31 = CIRCLE ( 'NONE', #33, 128.3787704918031200 ) ;
#32 = DIRECTION ( 'NONE',  ( -1.000000000000000000, -0.0000000000000000000, -0.0000000000000000000 ) ) ;
#33 = AXIS2_PLACEMENT_3D ( 'NONE', #185, #38, #146 ) ;
#34 = FILL_AREA_STYLE ('',( #164 ) ) ;
#35 = ADVANCED_FACE ( 'NONE', ( #8 ), #70, .T. ) ;
#36 = DIRECTION ( 'NONE',  ( 0.0000000000000000000, 1.000000000000000000, 0.0000000000000000000 ) ) ;
#37 = CARTESIAN_POINT ( 'NONE',  ( 402.9166708976999300, 132.6730482983460600, 0.0000000000000000000 ) ) ;
#38 = DIRECTION ( 'NONE',  ( 0.0000000000000000000, 1.224646799147353200E-016, -1.000000000000000000 ) ) ;
#39 = CARTESIAN_POINT ( 'NONE',  ( 404.9166708976999300, 132.6730482983460600, -12.50000000000001100 ) ) ;
#40 = CIRCLE ( 'NONE', #77, 12.50000000000001100 ) ;
#41 = APPLICATION_PROTOCOL_DEFINITION ( 'draft international standard', 'automotive_design', 1998, #3 ) ;
#42 = CARTESIAN_POINT ( 'NONE',  ( 404.9166708976999300, 132.6730482983460600, 0.0000000000000000000 ) ) ;
#43 = ORIENTED_EDGE ( 'NONE', *, *, #99, .T. ) ;
#44 = FACE_OUTER_BOUND ( 'NONE', #51, .T. ) ;
#45 = ORIENTED_EDGE ( 'NONE', *, *, #117, .T. ) ;
#46 = AXIS2_PLACEMENT_3D ( 'NONE', #124, #109, #79 ) ;
#47 = ORIENTED_EDGE ( 'NONE', *, *, #29, .T. ) ;
#48 = VECTOR ( 'NONE', #32, 1000.000000000000000 ) ;
#49 = CARTESIAN_POINT ( 'NONE',  ( 402.9166708976999300, 132.6730482983460600, 12.50000000000001100 ) ) ;
#50 = ADVANCED_FACE ( 'NONE', ( #136 ), #93, .T. ) ;
#51 = EDGE_LOOP ( 'NONE', ( #103, #45, #167, #54 ) ) ;
#52 =( NAMED_UNIT ( * ) PLANE_ANGLE_UNIT ( ) SI_UNIT ( $, .RADIAN. ) );
#53 = DIRECTION ( 'NONE',  ( -1.000000000000000000, -0.0000000000000000000, -0.0000000000000000000 ) ) ;
#54 = ORIENTED_EDGE ( 'NONE', *, *, #154, .F. ) ;
#55 = SURFACE_STYLE_USAGE ( .BOTH. , #149 ) ;
#56 = CARTESIAN_POINT ( 'NONE',  ( 277.1479004058967900, 132.6730482983459200, 0.0000000000000000000 ) ) ;
#57 = AXIS2_PLACEMENT_3D ( 'NONE', #16, #150, #72 ) ;
#58 = APPLICATION_CONTEXT ( 'automotive_design' ) ;
#59 = ORIENTED_EDGE ( 'NONE', *, *, #81, .F. ) ;
#60 = EDGE_CURVE ( 'NONE', #28, #108, #83, .T. ) ;
#61 = CARTESIAN_POINT ( 'NONE',  ( 404.9166708976998700, 120.1730482983459800, -1.530808498934183000E-015 ) ) ;
#62 = CIRCLE ( 'NONE', #57, 12.50000000000001100 ) ;
#63 = ORIENTED_EDGE ( 'NONE', *, *, #60, .F. ) ;
#64 = AXIS2_PLACEMENT_3D ( 'NONE', #56, #157, #4 ) ;
#65 = CARTESIAN_POINT ( 'NONE',  ( 398.1746396558101000, 132.6730482983460600, 0.0000000000000000000 ) ) ;
#66 = ORIENTED_EDGE ( 'NONE', *, *, #166, .T. ) ;
#67 = CARTESIAN_POINT ( 'NONE',  ( 398.1746396558101000, 132.6730482983460600, -12.50000000000001100 ) ) ;
#68 = DIRECTION ( 'NONE',  ( 0.0000000000000000000, 0.0000000000000000000, -1.000000000000000000 ) ) ;
#69 = CARTESIAN_POINT ( 'NONE',  ( 0.0000000000000000000, 0.0000000000000000000, 0.0000000000000000000 ) ) ;
#70 = CYLINDRICAL_SURFACE ( 'NONE', #91, 12.50000000000001100 ) ;
#71 = DIRECTION ( 'NONE',  ( -0.0000000000000000000, 0.0000000000000000000, 1.000000000000000000 ) ) ;
#72 = DIRECTION ( 'NONE',  ( 0.0000000000000000000, 0.0000000000000000000, 1.000000000000000000 ) ) ;
#73 = EDGE_LOOP ( 'NONE', ( #178, #47 ) ) ;
#74 = PRESENTATION_LAYER_ASSIGNMENT (  '', '', ( #184 ) ) ;
#75 = VERTEX_POINT ( 'NONE', #127 ) ;
#76 = FACE_OUTER_BOUND ( 'NONE', #73, .T. ) ;
#77 = AXIS2_PLACEMENT_3D ( 'NONE', #143, #170, #114 ) ;
#78 = DIRECTION ( 'NONE',  ( 0.0000000000000000000, 0.0000000000000000000, 1.000000000000000000 ) ) ;
#79 = DIRECTION ( 'NONE',  ( 0.0000000000000000000, 0.0000000000000000000, 1.000000000000000000 ) ) ;
#80 = ADVANCED_FACE ( 'NONE', ( #165 ), #179, .T. ) ;
#81 = EDGE_CURVE ( 'NONE', #19, #75, #120, .T. ) ;
#82 = CARTESIAN_POINT ( 'NONE',  ( 405.5266708976999400, 132.6730482983459200, 0.0000000000000000000 ) ) ;
#83 = CIRCLE ( 'NONE', #177, 12.50000000000001100 ) ;
#84 = PRODUCT_DEFINITION_CONTEXT ( 'detailed design', #58, 'design' ) ;
#85 = DIRECTION ( 'NONE',  ( 1.000000000000000000, 0.0000000000000000000, 0.0000000000000000000 ) ) ;
#86 = FILL_AREA_STYLE ('',( #105 ) ) ;
#87 = VERTEX_POINT ( 'NONE', #39 ) ;
#88 = CARTESIAN_POINT ( 'NONE',  ( 277.1479004058967900, 132.6730482983459200, 0.0000000000000000000 ) ) ;
#89 = AXIS2_PLACEMENT_3D ( 'NONE', #42, #53, #131 ) ;
#90 = VERTEX_POINT ( 'NONE', #82 ) ;
#91 = AXIS2_PLACEMENT_3D ( 'NONE', #182, #138, #78 ) ;
#92 = COLOUR_RGB ( '',1.000000000000000000, 1.000000000000000000, 1.000000000000000000 ) ;
#93 = SPHERICAL_SURFACE ( 'NONE', #30, 128.3787704918031200 ) ;
#94 = ORIENTED_EDGE ( 'NONE', *, *, #106, .F. ) ;
#95 =( LENGTH_UNIT ( ) NAMED_UNIT ( * ) SI_UNIT ( .MILLI., .METRE. ) );
#96 = SURFACE_STYLE_FILL_AREA ( #86 ) ;
#97 = SURFACE_STYLE_USAGE ( .BOTH. , #180 ) ;
#98 = ORIENTED_EDGE ( 'NONE', *, *, #117, .F. ) ;
#99 = EDGE_CURVE ( 'NONE', #87, #75, #148, .T. ) ;
#100 =( GEOMETRIC_REPRESENTATION_CONTEXT ( 3 ) GLOBAL_UNCERTAINTY_ASSIGNED_CONTEXT ( ( #102 ) ) GLOBAL_UNIT_ASSIGNED_CONTEXT ( ( #159, #52, #156 ) ) REPRESENTATION_CONTEXT ( 'NONE', 'WORKASPACE' ) );
#101 = CARTESIAN_POINT ( 'NONE',  ( 402.9166708976999300, 132.6730482983460600, 0.0000000000000000000 ) ) ;
#102 = UNCERTAINTY_MEASURE_WITH_UNIT (LENGTH_MEASURE( 1.000000000000000100E-005 ), #159, 'distance_accuracy_value', 'NONE');
#103 = ORIENTED_EDGE ( 'NONE', *, *, #166, .F. ) ;
#104 = EDGE_LOOP ( 'NONE', ( #123, #113, #130, #24, #158 ) ) ;
#105 = FILL_AREA_STYLE_COLOUR ( '', #92 ) ;
#106 = EDGE_CURVE ( 'NONE', #22, #28, #40, .T. ) ;
#107 = AXIS2_PLACEMENT_3D ( 'NONE', #65, #142, #145 ) ;
#108 = VERTEX_POINT ( 'NONE', #155 ) ;
#109 = DIRECTION ( 'NONE',  ( -1.000000000000000000, -0.0000000000000000000, -0.0000000000000000000 ) ) ;
#110 = VECTOR ( 'NONE', #186, 1000.000000000000000 ) ;
#111 = PRODUCT_DEFINITION_FORMATION_WITH_SPECIFIED_SOURCE ( 'ÈÎºÎ', '', #21, .NOT_KNOWN. ) ;
#112 = ADVANCED_FACE ( 'NONE', ( #76 ), #183, .F. ) ;
#113 = ORIENTED_EDGE ( 'NONE', *, *, #176, .T. ) ;
#114 = DIRECTION ( 'NONE',  ( 0.0000000000000000000, 0.0000000000000000000, 1.000000000000000000 ) ) ;
#115 = DIRECTION ( 'NONE',  ( -1.000000000000000000, -0.0000000000000000000, -0.0000000000000000000 ) ) ;
#116 = APPLICATION_PROTOCOL_DEFINITION ( 'draft international standard', 'automotive_design', 1998, #58 ) ;
#117 = EDGE_CURVE ( 'NONE', #90, #22, #31, .T. ) ;
#118 = ORIENTED_EDGE ( 'NONE', *, *, #1, .F. ) ;
#119 =( GEOMETRIC_REPRESENTATION_CONTEXT ( 3 ) GLOBAL_UNCERTAINTY_ASSIGNED_CONTEXT ( ( #151 ) ) GLOBAL_UNIT_ASSIGNED_CONTEXT ( ( #15, #129, #132 ) ) REPRESENTATION_CONTEXT ( 'NONE', 'WORKASPACE' ) );
#120 = CIRCLE ( 'NONE', #7, 12.50000000000001100 ) ;
#121 =( GEOMETRIC_REPRESENTATION_CONTEXT ( 3 ) GLOBAL_UNCERTAINTY_ASSIGNED_CONTEXT ( ( #162 ) ) GLOBAL_UNIT_ASSIGNED_CONTEXT ( ( #95, #23, #141 ) ) REPRESENTATION_CONTEXT ( 'NONE', 'WORKASPACE' ) );
#122 = COLOUR_RGB ( '',1.000000000000000000, 1.000000000000000000, 1.000000000000000000 ) ;
#123 = ORIENTED_EDGE ( 'NONE', *, *, #99, .F. ) ;
#124 = CARTESIAN_POINT ( 'NONE',  ( 402.9166708976999300, 132.6730482983460600, 0.0000000000000000000 ) ) ;
#125 = CARTESIAN_POINT ( 'NONE',  ( 398.1746396558101000, 132.6730482983460600, 12.50000000000001100 ) ) ;
#126 = AXIS2_PLACEMENT_3D ( 'NONE', #69, #171, #85 ) ;
#127 = CARTESIAN_POINT ( 'NONE',  ( 402.9166708976999300, 132.6730482983460600, -12.50000000000001100 ) ) ;
#128 = PRODUCT_RELATED_PRODUCT_CATEGORY ( 'part', '', ( #21 ) ) ;
#129 =( NAMED_UNIT ( * ) PLANE_ANGLE_UNIT ( ) SI_UNIT ( $, .RADIAN. ) );
#130 = ORIENTED_EDGE ( 'NONE', *, *, #106, .T. ) ;
#131 = DIRECTION ( 'NONE',  ( 0.0000000000000000000, 0.0000000000000000000, 1.000000000000000000 ) ) ;
#132 =( NAMED_UNIT ( * ) SI_UNIT ( $, .STERADIAN. ) SOLID_ANGLE_UNIT ( ) );
#133 = ADVANCED_BREP_SHAPE_REPRESENTATION ( '100048', ( #10, #126 ), #119 ) ;
#134 = EDGE_LOOP ( 'NONE', ( #98, #66, #63, #94 ) ) ;
#135 = AXIS2_PLACEMENT_3D ( 'NONE', #88, #71, #5 ) ;
#136 = FACE_OUTER_BOUND ( 'NONE', #134, .T. ) ;
#137 = CIRCLE ( 'NONE', #89, 12.50000000000001100 ) ;
#138 = DIRECTION ( 'NONE',  ( -1.000000000000000000, -0.0000000000000000000, -0.0000000000000000000 ) ) ;
#139 = ORIENTED_EDGE ( 'NONE', *, *, #154, .T. ) ;
#140 = MECHANICAL_DESIGN_GEOMETRIC_PRESENTATION_REPRESENTATION (  '', ( #184 ), #100 ) ;
#141 =( NAMED_UNIT ( * ) SI_UNIT ( $, .STERADIAN. ) SOLID_ANGLE_UNIT ( ) );
#142 = DIRECTION ( 'NONE',  ( -1.000000000000000000, -0.0000000000000000000, -0.0000000000000000000 ) ) ;
#143 = CARTESIAN_POINT ( 'NONE',  ( 404.9166708976999300, 132.6730482983460600, 0.0000000000000000000 ) ) ;
#144 = PRESENTATION_STYLE_ASSIGNMENT (( #97 ) ) ;
#145 = DIRECTION ( 'NONE',  ( 0.0000000000000000000, 0.0000000000000000000, 1.000000000000000000 ) ) ;
#146 = DIRECTION ( 'NONE',  ( 0.0000000000000000000, 1.000000000000000000, 1.224646799147353000E-016 ) ) ;
#147 = DIRECTION ( 'NONE',  ( 0.0000000000000000000, 0.0000000000000000000, 1.000000000000000000 ) ) ;
#148 = LINE ( 'NONE', #67, #110 ) ;
#149 = SURFACE_SIDE_STYLE ('',( #96 ) ) ;
#150 = DIRECTION ( 'NONE',  ( -1.000000000000000000, -0.0000000000000000000, -0.0000000000000000000 ) ) ;
#151 = UNCERTAINTY_MEASURE_WITH_UNIT (LENGTH_MEASURE( 1.000000000000000100E-005 ), #15, 'distance_accuracy_value', 'NONE');
#152 = LINE ( 'NONE', #125, #48 ) ;
#153 = SHAPE_DEFINITION_REPRESENTATION ( #25, #133 ) ;
#154 = EDGE_CURVE ( 'NONE', #108, #87, #137, .T. ) ;
#155 = CARTESIAN_POINT ( 'NONE',  ( 404.9166708976998700, 145.1730482983459800, 0.0000000000000000000 ) ) ;
#156 =( NAMED_UNIT ( * ) SI_UNIT ( $, .STERADIAN. ) SOLID_ANGLE_UNIT ( ) );
#157 = DIRECTION ( 'NONE',  ( -0.0000000000000000000, 0.0000000000000000000, -1.000000000000000000 ) ) ;
#158 = ORIENTED_EDGE ( 'NONE', *, *, #29, .F. ) ;
#159 =( LENGTH_UNIT ( ) NAMED_UNIT ( * ) SI_UNIT ( .MILLI., .METRE. ) );
#160 = CLOSED_SHELL ( 'NONE', ( #80, #181, #50, #35, #112 ) ) ;
#161 = PRODUCT_DEFINITION ( 'Î´Öª', '', #111, #84 ) ;
#162 = UNCERTAINTY_MEASURE_WITH_UNIT (LENGTH_MEASURE( 1.000000000000000100E-005 ), #95, 'distance_accuracy_value', 'NONE');
#163 = CIRCLE ( 'NONE', #46, 12.50000000000001100 ) ;
#164 = FILL_AREA_STYLE_COLOUR ( '', #122 ) ;
#165 = FACE_OUTER_BOUND ( 'NONE', #175, .T. ) ;
#166 = EDGE_CURVE ( 'NONE', #90, #108, #18, .T. ) ;
#167 = ORIENTED_EDGE ( 'NONE', *, *, #176, .F. ) ;
#168 = CARTESIAN_POINT ( 'NONE',  ( 404.9166708976999300, 132.6730482983460600, 12.50000000000001100 ) ) ;
#169 = CARTESIAN_POINT ( 'NONE',  ( 404.9166708976999300, 132.6730482983460600, 0.0000000000000000000 ) ) ;
#170 = DIRECTION ( 'NONE',  ( -1.000000000000000000, -0.0000000000000000000, -0.0000000000000000000 ) ) ;
#171 = DIRECTION ( 'NONE',  ( 0.0000000000000000000, 0.0000000000000000000, 1.000000000000000000 ) ) ;
#172 = STYLED_ITEM ( 'NONE', ( #144 ), #10 ) ;
#173 = MECHANICAL_DESIGN_GEOMETRIC_PRESENTATION_REPRESENTATION (  '', ( #172 ), #121 ) ;
#174 = SPHERICAL_SURFACE ( 'NONE', #64, 128.3787704918031200 ) ;
#175 = EDGE_LOOP ( 'NONE', ( #139, #43, #59, #118, #14 ) ) ;
#176 = EDGE_CURVE ( 'NONE', #87, #22, #62, .T. ) ;
#177 = AXIS2_PLACEMENT_3D ( 'NONE', #169, #115, #147 ) ;
#178 = ORIENTED_EDGE ( 'NONE', *, *, #81, .T. ) ;
#179 = CYLINDRICAL_SURFACE ( 'NONE', #107, 12.50000000000001100 ) ;
#180 = SURFACE_SIDE_STYLE ('',( #17 ) ) ;
#181 = ADVANCED_FACE ( 'NONE', ( #44 ), #174, .T. ) ;
#182 = CARTESIAN_POINT ( 'NONE',  ( 398.1746396558101000, 132.6730482983460600, 0.0000000000000000000 ) ) ;
#183 = PLANE ( 'NONE',  #20 ) ;
#184 = STYLED_ITEM ( 'NONE', ( #6 ), #133 ) ;
#185 = CARTESIAN_POINT ( 'NONE',  ( 277.1479004058967900, 132.6730482983459200, 0.0000000000000000000 ) ) ;
#186 = DIRECTION ( 'NONE',  ( -1.000000000000000000, -0.0000000000000000000, -0.0000000000000000000 ) ) ;
ENDSEC;
END-ISO-10303-21;
