ISO-10303-21;
HEADER;
FILE_DESCRIPTION (( 'STEP AP214' ),
    '1' );
FILE_NAME ('100052.STEP',
    '2019-04-30T01:17:54',
    ( '' ),
    ( '' ),
    'SwSTEP 2.0',
    'SolidWorks 2016',
    '' );
FILE_SCHEMA (( 'AUTOMOTIVE_DESIGN' ));
ENDSEC;

DATA;
#1 = STYLED_ITEM ( 'NONE', ( #64 ), #90 ) ;
#2 = ORIENTED_EDGE ( 'NONE', *, *, #79, .F. ) ;
#3 = DIRECTION ( 'NONE',  ( 1.000000000000000000, 0.0000000000000000000, 0.0000000000000000000 ) ) ;
#4 = VECTOR ( 'NONE', #77, 1000.000000000000000 ) ;
#5 =( LENGTH_UNIT ( ) NAMED_UNIT ( * ) SI_UNIT ( .MILLI., .METRE. ) );
#6 = DIRECTION ( 'NONE',  ( 0.0000000000000000000, 0.0000000000000000000, 1.000000000000000000 ) ) ;
#7 = CARTESIAN_POINT ( 'NONE',  ( 242.4592736284467700, 130.0418907599245100, 0.0000000000000000000 ) ) ;
#8 =( LENGTH_UNIT ( ) NAMED_UNIT ( * ) SI_UNIT ( .MILLI., .METRE. ) );
#9 = ORIENTED_EDGE ( 'NONE', *, *, #57, .T. ) ;
#10 = DIRECTION ( 'NONE',  ( 1.000000000000000000, 0.0000000000000000000, 0.0000000000000000000 ) ) ;
#11 = DIRECTION ( 'NONE',  ( 0.0000000000000000000, 0.0000000000000000000, 1.000000000000000000 ) ) ;
#12 = EDGE_LOOP ( 'NONE', ( #123, #152, #56, #146 ) ) ;
#13 = PRODUCT_DEFINITION ( 'Î´Öª', '', #103, #119 ) ;
#14 = PLANE ( 'NONE',  #144 ) ;
#15 = AXIS2_PLACEMENT_3D ( 'NONE', #26, #148, #86 ) ;
#16 = ORIENTED_EDGE ( 'NONE', *, *, #95, .F. ) ;
#17 = AXIS2_PLACEMENT_3D ( 'NONE', #49, #127, #11 ) ;
#18 = PRODUCT_RELATED_PRODUCT_CATEGORY ( 'part', '', ( #176 ) ) ;
#19 = UNCERTAINTY_MEASURE_WITH_UNIT (LENGTH_MEASURE( 1.000000000000000100E-005 ), #5, 'distance_accuracy_value', 'NONE');
#20 = ORIENTED_EDGE ( 'NONE', *, *, #130, .T. ) ;
#21 = CARTESIAN_POINT ( 'NONE',  ( 242.4592736284467700, 130.0418907599245100, 0.0000000000000000000 ) ) ;
#22 = FILL_AREA_STYLE ('',( #70 ) ) ;
#23 = APPLICATION_PROTOCOL_DEFINITION ( 'draft international standard', 'automotive_design', 1998, #143 ) ;
#24 = PRODUCT_DEFINITION_SHAPE ( 'NONE', 'NONE',  #13 ) ;
#25 = FACE_OUTER_BOUND ( 'NONE', #12, .T. ) ;
#26 = CARTESIAN_POINT ( 'NONE',  ( -1059.144059704876800, 130.0418907599233800, 0.0000000000000000000 ) ) ;
#27 =( GEOMETRIC_REPRESENTATION_CONTEXT ( 3 ) GLOBAL_UNCERTAINTY_ASSIGNED_CONTEXT ( ( #154 ) ) GLOBAL_UNIT_ASSIGNED_CONTEXT ( ( #109, #145, #42 ) ) REPRESENTATION_CONTEXT ( 'NONE', 'WORKASPACE' ) );
#28 = SURFACE_STYLE_USAGE ( .BOTH. , #177 ) ;
#29 = CARTESIAN_POINT ( 'NONE',  ( 242.4592736284467700, 180.0418907599225500, 0.0000000000000000000 ) ) ;
#30 = SURFACE_STYLE_FILL_AREA ( #46 ) ;
#31 = CIRCLE ( 'NONE', #17, 49.99999999999998600 ) ;
#32 = AXIS2_PLACEMENT_3D ( 'NONE', #142, #41, #121 ) ;
#33 = CARTESIAN_POINT ( 'NONE',  ( -1059.144059704876800, 130.0418907599233800, 0.0000000000000000000 ) ) ;
#34 = ORIENTED_EDGE ( 'NONE', *, *, #80, .F. ) ;
#35 = CIRCLE ( 'NONE', #32, 49.99999999999998600 ) ;
#36 = EDGE_CURVE ( 'NONE', #38, #139, #82, .T. ) ;
#37 = ADVANCED_FACE ( 'NONE', ( #25 ), #55, .T. ) ;
#38 = VERTEX_POINT ( 'NONE', #29 ) ;
#39 = DIRECTION ( 'NONE',  ( -1.000000000000000000, -0.0000000000000000000, -0.0000000000000000000 ) ) ;
#40 = VERTEX_POINT ( 'NONE', #45 ) ;
#41 = DIRECTION ( 'NONE',  ( -1.000000000000000000, -0.0000000000000000000, -0.0000000000000000000 ) ) ;
#42 =( NAMED_UNIT ( * ) SI_UNIT ( $, .STERADIAN. ) SOLID_ANGLE_UNIT ( ) );
#43 = MANIFOLD_SOLID_BREP ( 'Ðý×ª1', #114 ) ;
#44 = DIRECTION ( 'NONE',  ( 0.0000000000000000000, 0.0000000000000000000, 1.000000000000000000 ) ) ;
#45 = CARTESIAN_POINT ( 'NONE',  ( 243.4192736284466300, 130.0418907599234600, 0.0000000000000000000 ) ) ;
#46 = FILL_AREA_STYLE ('',( #111 ) ) ;
#47 = AXIS2_PLACEMENT_3D ( 'NONE', #100, #75, #10 ) ;
#48 = DIRECTION ( 'NONE',  ( 0.0000000000000000000, 0.0000000000000000000, 1.000000000000000000 ) ) ;
#49 = CARTESIAN_POINT ( 'NONE',  ( 236.2992736284467700, 130.0418907599245100, 0.0000000000000000000 ) ) ;
#50 = CARTESIAN_POINT ( 'NONE',  ( 217.3311486608872700, 130.0418907599245100, -49.99999999999998600 ) ) ;
#51 = VERTEX_POINT ( 'NONE', #179 ) ;
#52 = CARTESIAN_POINT ( 'NONE',  ( 217.3311486608872700, 130.0418907599245100, 49.99999999999998600 ) ) ;
#53 = PRESENTATION_LAYER_ASSIGNMENT (  '', '', ( #1 ) ) ;
#54 = STYLED_ITEM ( 'NONE', ( #108 ), #43 ) ;
#55 = SPHERICAL_SURFACE ( 'NONE', #15, 1302.563333333323300 ) ;
#56 = ORIENTED_EDGE ( 'NONE', *, *, #102, .F. ) ;
#57 = EDGE_CURVE ( 'NONE', #40, #38, #149, .T. ) ;
#58 = APPLICATION_PROTOCOL_DEFINITION ( 'draft international standard', 'automotive_design', 1998, #118 ) ;
#59 = ORIENTED_EDGE ( 'NONE', *, *, #63, .T. ) ;
#60 = MECHANICAL_DESIGN_GEOMETRIC_PRESENTATION_REPRESENTATION (  '', ( #1 ), #167 ) ;
#61 =( NAMED_UNIT ( * ) SI_UNIT ( $, .STERADIAN. ) SOLID_ANGLE_UNIT ( ) );
#62 = FACE_OUTER_BOUND ( 'NONE', #171, .T. ) ;
#63 = EDGE_CURVE ( 'NONE', #117, #51, #186, .T. ) ;
#64 = PRESENTATION_STYLE_ASSIGNMENT (( #84 ) ) ;
#65 = COLOUR_RGB ( '',1.000000000000000000, 1.000000000000000000, 1.000000000000000000 ) ;
#66 = ORIENTED_EDGE ( 'NONE', *, *, #36, .T. ) ;
#67 =( NAMED_UNIT ( * ) PLANE_ANGLE_UNIT ( ) SI_UNIT ( $, .RADIAN. ) );
#68 = CIRCLE ( 'NONE', #170, 1302.563333333323300 ) ;
#69 = EDGE_CURVE ( 'NONE', #180, #113, #101, .T. ) ;
#70 = FILL_AREA_STYLE_COLOUR ( '', #166 ) ;
#71 = CARTESIAN_POINT ( 'NONE',  ( 236.2992736284467700, 130.0418907599245100, 0.0000000000000000000 ) ) ;
#72 = AXIS2_PLACEMENT_3D ( 'NONE', #165, #87, #138 ) ;
#73 = CARTESIAN_POINT ( 'NONE',  ( 242.4592736284467700, 130.0418907599245100, 0.0000000000000000000 ) ) ;
#74 = SHAPE_DEFINITION_REPRESENTATION ( #24, #90 ) ;
#75 = DIRECTION ( 'NONE',  ( -0.0000000000000000000, 0.0000000000000000000, 1.000000000000000000 ) ) ;
#76 = CYLINDRICAL_SURFACE ( 'NONE', #72, 49.99999999999998600 ) ;
#77 = DIRECTION ( 'NONE',  ( -1.000000000000000000, -0.0000000000000000000, -0.0000000000000000000 ) ) ;
#78 = CARTESIAN_POINT ( 'NONE',  ( 236.2992736284467700, 130.0418907599245100, -49.99999999999998600 ) ) ;
#79 = EDGE_CURVE ( 'NONE', #40, #117, #68, .T. ) ;
#80 = EDGE_CURVE ( 'NONE', #113, #180, #31, .T. ) ;
#81 = EDGE_LOOP ( 'NONE', ( #158, #85, #59, #136, #34 ) ) ;
#82 = CIRCLE ( 'NONE', #163, 49.99999999999998600 ) ;
#83 = CARTESIAN_POINT ( 'NONE',  ( 242.4592736284467700, 130.0418907599245100, -49.99999999999998600 ) ) ;
#84 = SURFACE_STYLE_USAGE ( .BOTH. , #175 ) ;
#85 = ORIENTED_EDGE ( 'NONE', *, *, #102, .T. ) ;
#86 = DIRECTION ( 'NONE',  ( 0.0000000000000000000, 1.000000000000000000, 0.0000000000000000000 ) ) ;
#87 = DIRECTION ( 'NONE',  ( -1.000000000000000000, -0.0000000000000000000, -0.0000000000000000000 ) ) ;
#88 = EDGE_CURVE ( 'NONE', #139, #113, #99, .T. ) ;
#89 = CARTESIAN_POINT ( 'NONE',  ( -1059.144059704876800, 130.0418907599233800, 0.0000000000000000000 ) ) ;
#90 = ADVANCED_BREP_SHAPE_REPRESENTATION ( '100052', ( #43, #131 ), #27 ) ;
#91 = ADVANCED_FACE ( 'NONE', ( #173 ), #76, .T. ) ;
#92 = ORIENTED_EDGE ( 'NONE', *, *, #80, .T. ) ;
#93 = ADVANCED_FACE ( 'NONE', ( #164 ), #133, .T. ) ;
#94 = CIRCLE ( 'NONE', #169, 49.99999999999998600 ) ;
#95 = EDGE_CURVE ( 'NONE', #51, #180, #159, .T. ) ;
#96 = DIRECTION ( 'NONE',  ( 0.0000000000000000000, 0.0000000000000000000, 1.000000000000000000 ) ) ;
#97 = DIRECTION ( 'NONE',  ( -1.000000000000000000, -0.0000000000000000000, -0.0000000000000000000 ) ) ;
#98 = DIRECTION ( 'NONE',  ( -1.000000000000000000, -0.0000000000000000000, -0.0000000000000000000 ) ) ;
#99 = LINE ( 'NONE', #50, #155 ) ;
#100 = CARTESIAN_POINT ( 'NONE',  ( -1059.144059704876800, 130.0418907599233800, 0.0000000000000000000 ) ) ;
#101 = CIRCLE ( 'NONE', #160, 49.99999999999998600 ) ;
#102 = EDGE_CURVE ( 'NONE', #139, #117, #35, .T. ) ;
#103 = PRODUCT_DEFINITION_FORMATION_WITH_SPECIFIED_SOURCE ( 'ÈÎºÎ', '', #176, .NOT_KNOWN. ) ;
#104 = EDGE_LOOP ( 'NONE', ( #2, #9, #116, #140 ) ) ;
#105 = ADVANCED_FACE ( 'NONE', ( #62 ), #14, .F. ) ;
#106 = UNCERTAINTY_MEASURE_WITH_UNIT (LENGTH_MEASURE( 1.000000000000000100E-005 ), #8, 'distance_accuracy_value', 'NONE');
#107 = PRODUCT_CONTEXT ( 'NONE', #118, 'mechanical' ) ;
#108 = PRESENTATION_STYLE_ASSIGNMENT (( #28 ) ) ;
#109 =( LENGTH_UNIT ( ) NAMED_UNIT ( * ) SI_UNIT ( .MILLI., .METRE. ) );
#110 = DIRECTION ( 'NONE',  ( 1.000000000000000000, 0.0000000000000000000, 0.0000000000000000000 ) ) ;
#111 = FILL_AREA_STYLE_COLOUR ( '', #65 ) ;
#112 = DIRECTION ( 'NONE',  ( -1.000000000000000000, -0.0000000000000000000, -0.0000000000000000000 ) ) ;
#113 = VERTEX_POINT ( 'NONE', #78 ) ;
#114 = CLOSED_SHELL ( 'NONE', ( #91, #37, #93, #156, #105 ) ) ;
#115 = PRESENTATION_LAYER_ASSIGNMENT (  '', '', ( #54 ) ) ;
#116 = ORIENTED_EDGE ( 'NONE', *, *, #130, .F. ) ;
#117 = VERTEX_POINT ( 'NONE', #147 ) ;
#118 = APPLICATION_CONTEXT ( 'automotive_design' ) ;
#119 = PRODUCT_DEFINITION_CONTEXT ( 'detailed design', #143, 'design' ) ;
#120 = ORIENTED_EDGE ( 'NONE', *, *, #88, .T. ) ;
#121 = DIRECTION ( 'NONE',  ( 0.0000000000000000000, 0.0000000000000000000, 1.000000000000000000 ) ) ;
#122 = AXIS2_PLACEMENT_3D ( 'NONE', #134, #97, #96 ) ;
#123 = ORIENTED_EDGE ( 'NONE', *, *, #57, .F. ) ;
#124 =( NAMED_UNIT ( * ) PLANE_ANGLE_UNIT ( ) SI_UNIT ( $, .RADIAN. ) );
#125 = MECHANICAL_DESIGN_GEOMETRIC_PRESENTATION_REPRESENTATION (  '', ( #54 ), #168 ) ;
#126 = DIRECTION ( 'NONE',  ( 0.0000000000000000000, 1.224646799147353200E-016, -1.000000000000000000 ) ) ;
#127 = DIRECTION ( 'NONE',  ( -1.000000000000000000, -0.0000000000000000000, -0.0000000000000000000 ) ) ;
#128 = DIRECTION ( 'NONE',  ( -0.0000000000000000000, 0.0000000000000000000, -1.000000000000000000 ) ) ;
#129 = ORIENTED_EDGE ( 'NONE', *, *, #69, .F. ) ;
#130 = EDGE_CURVE ( 'NONE', #51, #38, #94, .T. ) ;
#131 = AXIS2_PLACEMENT_3D ( 'NONE', #161, #44, #110 ) ;
#132 = SURFACE_STYLE_FILL_AREA ( #22 ) ;
#133 = SPHERICAL_SURFACE ( 'NONE', #157, 1302.563333333323300 ) ;
#134 = CARTESIAN_POINT ( 'NONE',  ( 217.3311486608872700, 130.0418907599245100, 0.0000000000000000000 ) ) ;
#135 =( NAMED_UNIT ( * ) SI_UNIT ( $, .STERADIAN. ) SOLID_ANGLE_UNIT ( ) );
#136 = ORIENTED_EDGE ( 'NONE', *, *, #95, .T. ) ;
#137 = DIRECTION ( 'NONE',  ( 0.0000000000000000000, 0.0000000000000000000, 1.000000000000000000 ) ) ;
#138 = DIRECTION ( 'NONE',  ( 0.0000000000000000000, 0.0000000000000000000, 1.000000000000000000 ) ) ;
#139 = VERTEX_POINT ( 'NONE', #83 ) ;
#140 = ORIENTED_EDGE ( 'NONE', *, *, #63, .F. ) ;
#141 = ORIENTED_EDGE ( 'NONE', *, *, #69, .T. ) ;
#142 = CARTESIAN_POINT ( 'NONE',  ( 242.4592736284467700, 130.0418907599245100, 0.0000000000000000000 ) ) ;
#143 = APPLICATION_CONTEXT ( 'automotive_design' ) ;
#144 = AXIS2_PLACEMENT_3D ( 'NONE', #151, #3, #174 ) ;
#145 =( NAMED_UNIT ( * ) PLANE_ANGLE_UNIT ( ) SI_UNIT ( $, .RADIAN. ) );
#146 = ORIENTED_EDGE ( 'NONE', *, *, #36, .F. ) ;
#147 = CARTESIAN_POINT ( 'NONE',  ( 242.4592736284467700, 80.04189075992532300, -6.123233995736526300E-015 ) ) ;
#148 = DIRECTION ( 'NONE',  ( -0.0000000000000000000, 0.0000000000000000000, -1.000000000000000000 ) ) ;
#149 = CIRCLE ( 'NONE', #47, 1302.563333333323300 ) ;
#150 = AXIS2_PLACEMENT_3D ( 'NONE', #7, #112, #181 ) ;
#151 = CARTESIAN_POINT ( 'NONE',  ( 236.2992736284467700, 130.0418907599244800, 0.0000000000000000000 ) ) ;
#152 = ORIENTED_EDGE ( 'NONE', *, *, #79, .T. ) ;
#153 = DIRECTION ( 'NONE',  ( 0.0000000000000000000, 1.000000000000000000, 1.224646799147353200E-016 ) ) ;
#154 = UNCERTAINTY_MEASURE_WITH_UNIT (LENGTH_MEASURE( 1.000000000000000100E-005 ), #109, 'distance_accuracy_value', 'NONE');
#155 = VECTOR ( 'NONE', #183, 1000.000000000000000 ) ;
#156 = ADVANCED_FACE ( 'NONE', ( #172 ), #182, .T. ) ;
#157 = AXIS2_PLACEMENT_3D ( 'NONE', #89, #128, #185 ) ;
#158 = ORIENTED_EDGE ( 'NONE', *, *, #88, .F. ) ;
#159 = LINE ( 'NONE', #52, #4 ) ;
#160 = AXIS2_PLACEMENT_3D ( 'NONE', #71, #98, #137 ) ;
#161 = CARTESIAN_POINT ( 'NONE',  ( 0.0000000000000000000, 0.0000000000000000000, 0.0000000000000000000 ) ) ;
#162 = CARTESIAN_POINT ( 'NONE',  ( 236.2992736284467700, 130.0418907599245100, 49.99999999999998600 ) ) ;
#163 = AXIS2_PLACEMENT_3D ( 'NONE', #73, #178, #48 ) ;
#164 = FACE_OUTER_BOUND ( 'NONE', #104, .T. ) ;
#165 = CARTESIAN_POINT ( 'NONE',  ( 217.3311486608872700, 130.0418907599245100, 0.0000000000000000000 ) ) ;
#166 = COLOUR_RGB ( '',1.000000000000000000, 1.000000000000000000, 1.000000000000000000 ) ;
#167 =( GEOMETRIC_REPRESENTATION_CONTEXT ( 3 ) GLOBAL_UNCERTAINTY_ASSIGNED_CONTEXT ( ( #19 ) ) GLOBAL_UNIT_ASSIGNED_CONTEXT ( ( #5, #67, #135 ) ) REPRESENTATION_CONTEXT ( 'NONE', 'WORKASPACE' ) );
#168 =( GEOMETRIC_REPRESENTATION_CONTEXT ( 3 ) GLOBAL_UNCERTAINTY_ASSIGNED_CONTEXT ( ( #106 ) ) GLOBAL_UNIT_ASSIGNED_CONTEXT ( ( #8, #124, #61 ) ) REPRESENTATION_CONTEXT ( 'NONE', 'WORKASPACE' ) );
#169 = AXIS2_PLACEMENT_3D ( 'NONE', #21, #39, #6 ) ;
#170 = AXIS2_PLACEMENT_3D ( 'NONE', #33, #126, #153 ) ;
#171 = EDGE_LOOP ( 'NONE', ( #141, #92 ) ) ;
#172 = FACE_OUTER_BOUND ( 'NONE', #81, .T. ) ;
#173 = FACE_OUTER_BOUND ( 'NONE', #184, .T. ) ;
#174 = DIRECTION ( 'NONE',  ( 0.0000000000000000000, 0.0000000000000000000, -1.000000000000000000 ) ) ;
#175 = SURFACE_SIDE_STYLE ('',( #132 ) ) ;
#176 = PRODUCT ( '100052', '100052', '', ( #107 ) ) ;
#177 = SURFACE_SIDE_STYLE ('',( #30 ) ) ;
#178 = DIRECTION ( 'NONE',  ( -1.000000000000000000, -0.0000000000000000000, -0.0000000000000000000 ) ) ;
#179 = CARTESIAN_POINT ( 'NONE',  ( 242.4592736284467700, 130.0418907599245100, 49.99999999999998600 ) ) ;
#180 = VERTEX_POINT ( 'NONE', #162 ) ;
#181 = DIRECTION ( 'NONE',  ( 0.0000000000000000000, 0.0000000000000000000, 1.000000000000000000 ) ) ;
#182 = CYLINDRICAL_SURFACE ( 'NONE', #122, 49.99999999999998600 ) ;
#183 = DIRECTION ( 'NONE',  ( -1.000000000000000000, -0.0000000000000000000, -0.0000000000000000000 ) ) ;
#184 = EDGE_LOOP ( 'NONE', ( #66, #120, #129, #16, #20 ) ) ;
#185 = DIRECTION ( 'NONE',  ( 0.0000000000000000000, 1.000000000000000000, 0.0000000000000000000 ) ) ;
#186 = CIRCLE ( 'NONE', #150, 49.99999999999998600 ) ;
ENDSEC;
END-ISO-10303-21;
