ISO-10303-21;
HEADER;
FILE_DESCRIPTION (( 'STEP AP214' ),
    '1' );
FILE_NAME ('100058.STEP',
    '2019-04-30T02:52:42',
    ( '' ),
    ( '' ),
    'SwSTEP 2.0',
    'SolidWorks 2016',
    '' );
FILE_SCHEMA (( 'AUTOMOTIVE_DESIGN' ));
ENDSEC;

DATA;
#1 = PRESENTATION_LAYER_ASSIGNMENT (  '', '', ( #175 ) ) ;
#2 = DIRECTION ( 'NONE',  ( 1.000000000000000000, 0.0000000000000000000, 0.0000000000000000000 ) ) ;
#3 = SPHERICAL_SURFACE ( 'NONE', #71, 51.64279156327545900 ) ;
#4 = AXIS2_PLACEMENT_3D ( 'NONE', #150, #14, #23 ) ;
#5 = CARTESIAN_POINT ( 'NONE',  ( 542.9633062987982200, 203.9811879108666800, 0.0000000000000000000 ) ) ;
#6 = UNCERTAINTY_MEASURE_WITH_UNIT (LENGTH_MEASURE( 1.000000000000000100E-005 ), #122, 'distance_accuracy_value', 'NONE');
#7 = CARTESIAN_POINT ( 'NONE',  ( 495.3505147355227200, 183.9811879108666500, 0.0000000000000000000 ) ) ;
#8 = EDGE_CURVE ( 'NONE', #109, #41, #19, .T. ) ;
#9 = DIRECTION ( 'NONE',  ( -1.000000000000000000, -0.0000000000000000000, -0.0000000000000000000 ) ) ;
#10 = DIRECTION ( 'NONE',  ( -1.000000000000000000, -0.0000000000000000000, -0.0000000000000000000 ) ) ;
#11 = DIRECTION ( 'NONE',  ( 0.0000000000000000000, 0.0000000000000000000, 1.000000000000000000 ) ) ;
#12 = CARTESIAN_POINT ( 'NONE',  ( 530.9568089790251400, 183.9811879108666500, 0.0000000000000000000 ) ) ;
#13 = SURFACE_STYLE_USAGE ( .BOTH. , #50 ) ;
#14 = DIRECTION ( 'NONE',  ( -1.000000000000000000, -0.0000000000000000000, -0.0000000000000000000 ) ) ;
#15 = APPLICATION_CONTEXT ( 'automotive_design' ) ;
#16 = EDGE_CURVE ( 'NONE', #186, #41, #152, .T. ) ;
#17 =( NAMED_UNIT ( * ) PLANE_ANGLE_UNIT ( ) SI_UNIT ( $, .RADIAN. ) );
#18 = FACE_OUTER_BOUND ( 'NONE', #76, .T. ) ;
#19 = CIRCLE ( 'NONE', #82, 20.00000000000001800 ) ;
#20 = AXIS2_PLACEMENT_3D ( 'NONE', #133, #79, #11 ) ;
#21 = ORIENTED_EDGE ( 'NONE', *, *, #16, .T. ) ;
#22 = CIRCLE ( 'NONE', #123, 20.00000000000001800 ) ;
#23 = DIRECTION ( 'NONE',  ( 0.0000000000000000000, 0.0000000000000000000, 1.000000000000000000 ) ) ;
#24 = DIRECTION ( 'NONE',  ( 1.000000000000000000, 0.0000000000000000000, 0.0000000000000000000 ) ) ;
#25 = DIRECTION ( 'NONE',  ( 0.0000000000000000000, 0.0000000000000000000, 1.000000000000000000 ) ) ;
#26 = DIRECTION ( 'NONE',  ( 0.0000000000000000000, 0.0000000000000000000, 1.000000000000000000 ) ) ;
#27 = PRODUCT_DEFINITION_CONTEXT ( 'detailed design', #153, 'design' ) ;
#28 =( NAMED_UNIT ( * ) PLANE_ANGLE_UNIT ( ) SI_UNIT ( $, .RADIAN. ) );
#29 = ORIENTED_EDGE ( 'NONE', *, *, #8, .F. ) ;
#30 = MECHANICAL_DESIGN_GEOMETRIC_PRESENTATION_REPRESENTATION (  '', ( #175 ), #160 ) ;
#31 = ORIENTED_EDGE ( 'NONE', *, *, #145, .F. ) ;
#32 = STYLED_ITEM ( 'NONE', ( #164 ), #121 ) ;
#33 = VERTEX_POINT ( 'NONE', #75 ) ;
#34 = CARTESIAN_POINT ( 'NONE',  ( 540.4633062987982200, 183.9811879108666500, 20.00000000000001800 ) ) ;
#35 = DIRECTION ( 'NONE',  ( 1.000000000000000000, 0.0000000000000000000, 0.0000000000000000000 ) ) ;
#36 = CARTESIAN_POINT ( 'NONE',  ( 0.0000000000000000000, 0.0000000000000000000, 0.0000000000000000000 ) ) ;
#37 = UNCERTAINTY_MEASURE_WITH_UNIT (LENGTH_MEASURE( 1.000000000000000100E-005 ), #47, 'distance_accuracy_value', 'NONE');
#38 = SURFACE_SIDE_STYLE ('',( #56 ) ) ;
#39 = SPHERICAL_SURFACE ( 'NONE', #157, 51.64279156327545900 ) ;
#40 = APPLICATION_PROTOCOL_DEFINITION ( 'draft international standard', 'automotive_design', 1998, #15 ) ;
#41 = VERTEX_POINT ( 'NONE', #34 ) ;
#42 = ADVANCED_FACE ( 'NONE', ( #18 ), #45, .T. ) ;
#43 = CARTESIAN_POINT ( 'NONE',  ( 540.4633062987982200, 183.9811879108666500, 0.0000000000000000000 ) ) ;
#44 = ORIENTED_EDGE ( 'NONE', *, *, #128, .F. ) ;
#45 = CYLINDRICAL_SURFACE ( 'NONE', #167, 20.00000000000001800 ) ;
#46 = PRESENTATION_LAYER_ASSIGNMENT (  '', '', ( #32 ) ) ;
#47 =( LENGTH_UNIT ( ) NAMED_UNIT ( * ) SI_UNIT ( .MILLI., .METRE. ) );
#48 = FACE_OUTER_BOUND ( 'NONE', #140, .T. ) ;
#49 = CIRCLE ( 'NONE', #114, 51.64279156327544500 ) ;
#50 = SURFACE_SIDE_STYLE ('',( #112 ) ) ;
#51 = DIRECTION ( 'NONE',  ( 0.0000000000000000000, 0.0000000000000000000, 1.000000000000000000 ) ) ;
#52 = CARTESIAN_POINT ( 'NONE',  ( 542.9633062987982200, 183.9811879108666500, 0.0000000000000000000 ) ) ;
#53 = FACE_OUTER_BOUND ( 'NONE', #168, .T. ) ;
#54 = CARTESIAN_POINT ( 'NONE',  ( 542.9633062987982200, 183.9811879108666500, 20.00000000000001800 ) ) ;
#55 = ORIENTED_EDGE ( 'NONE', *, *, #128, .T. ) ;
#56 = SURFACE_STYLE_FILL_AREA ( #155 ) ;
#57 = PRODUCT_CONTEXT ( 'NONE', #15, 'mechanical' ) ;
#58 = ADVANCED_FACE ( 'NONE', ( #48 ), #39, .T. ) ;
#59 = ADVANCED_BREP_SHAPE_REPRESENTATION ( '100058', ( #121, #68 ), #163 ) ;
#60 = MECHANICAL_DESIGN_GEOMETRIC_PRESENTATION_REPRESENTATION (  '', ( #32 ), #102 ) ;
#61 = EDGE_LOOP ( 'NONE', ( #124, #129 ) ) ;
#62 = DIRECTION ( 'NONE',  ( -0.0000000000000000000, 0.0000000000000000000, -1.000000000000000000 ) ) ;
#63 = EDGE_CURVE ( 'NONE', #41, #109, #139, .T. ) ;
#64 = ORIENTED_EDGE ( 'NONE', *, *, #92, .T. ) ;
#65 = CARTESIAN_POINT ( 'NONE',  ( 495.3505147355227200, 183.9811879108666500, 0.0000000000000000000 ) ) ;
#66 = DIRECTION ( 'NONE',  ( -1.000000000000000000, -0.0000000000000000000, -0.0000000000000000000 ) ) ;
#67 = DIRECTION ( 'NONE',  ( 0.0000000000000000000, 0.0000000000000000000, -1.000000000000000000 ) ) ;
#68 = AXIS2_PLACEMENT_3D ( 'NONE', #36, #185, #2 ) ;
#69 =( LENGTH_UNIT ( ) NAMED_UNIT ( * ) SI_UNIT ( .MILLI., .METRE. ) );
#70 = VERTEX_POINT ( 'NONE', #5 ) ;
#71 = AXIS2_PLACEMENT_3D ( 'NONE', #7, #180, #135 ) ;
#72 = ORIENTED_EDGE ( 'NONE', *, *, #87, .F. ) ;
#73 = PRODUCT ( '100058', '100058', '', ( #57 ) ) ;
#74 = CYLINDRICAL_SURFACE ( 'NONE', #154, 20.00000000000001800 ) ;
#75 = CARTESIAN_POINT ( 'NONE',  ( 542.9633062987982200, 163.9811879108666200, -2.449293598294706500E-015 ) ) ;
#76 = EDGE_LOOP ( 'NONE', ( #116, #162, #64, #21, #29 ) ) ;
#77 =( NAMED_UNIT ( * ) PLANE_ANGLE_UNIT ( ) SI_UNIT ( $, .RADIAN. ) );
#78 = VERTEX_POINT ( 'NONE', #179 ) ;
#79 = DIRECTION ( 'NONE',  ( -1.000000000000000000, -0.0000000000000000000, -0.0000000000000000000 ) ) ;
#80 = CIRCLE ( 'NONE', #177, 20.00000000000001800 ) ;
#81 = ADVANCED_FACE ( 'NONE', ( #53 ), #3, .T. ) ;
#82 = AXIS2_PLACEMENT_3D ( 'NONE', #43, #10, #146 ) ;
#83 = ORIENTED_EDGE ( 'NONE', *, *, #63, .F. ) ;
#84 = ORIENTED_EDGE ( 'NONE', *, *, #87, .T. ) ;
#85 = PRODUCT_DEFINITION_FORMATION_WITH_SPECIFIED_SOURCE ( 'ÈÎºÎ', '', #73, .NOT_KNOWN. ) ;
#86 = CARTESIAN_POINT ( 'NONE',  ( 530.9568089790251400, 183.9811879108666500, 20.00000000000001800 ) ) ;
#87 = EDGE_CURVE ( 'NONE', #70, #78, #80, .T. ) ;
#88 = ORIENTED_EDGE ( 'NONE', *, *, #108, .F. ) ;
#89 = DIRECTION ( 'NONE',  ( -1.000000000000000000, -0.0000000000000000000, -0.0000000000000000000 ) ) ;
#90 = COLOUR_RGB ( '',1.000000000000000000, 1.000000000000000000, 1.000000000000000000 ) ;
#91 = PRODUCT_DEFINITION_SHAPE ( 'NONE', 'NONE',  #156 ) ;
#92 = EDGE_CURVE ( 'NONE', #33, #186, #127, .T. ) ;
#93 = DIRECTION ( 'NONE',  ( -0.0000000000000000000, 0.0000000000000000000, 1.000000000000000000 ) ) ;
#94 = FILL_AREA_STYLE ('',( #104 ) ) ;
#95 = CARTESIAN_POINT ( 'NONE',  ( 542.9633062987982200, 183.9811879108666500, 0.0000000000000000000 ) ) ;
#96 = AXIS2_PLACEMENT_3D ( 'NONE', #65, #120, #165 ) ;
#97 = EDGE_CURVE ( 'NONE', #186, #70, #130, .T. ) ;
#98 = ORIENTED_EDGE ( 'NONE', *, *, #92, .F. ) ;
#99 = EDGE_CURVE ( 'NONE', #78, #109, #159, .T. ) ;
#100 = ORIENTED_EDGE ( 'NONE', *, *, #97, .T. ) ;
#101 = CARTESIAN_POINT ( 'NONE',  ( 495.3505147355227200, 183.9811879108666500, 0.0000000000000000000 ) ) ;
#102 =( GEOMETRIC_REPRESENTATION_CONTEXT ( 3 ) GLOBAL_UNCERTAINTY_ASSIGNED_CONTEXT ( ( #169 ) ) GLOBAL_UNIT_ASSIGNED_CONTEXT ( ( #69, #77, #184 ) ) REPRESENTATION_CONTEXT ( 'NONE', 'WORKASPACE' ) );
#103 = DIRECTION ( 'NONE',  ( -1.000000000000000000, -0.0000000000000000000, -0.0000000000000000000 ) ) ;
#104 = FILL_AREA_STYLE_COLOUR ( '', #90 ) ;
#105 = CARTESIAN_POINT ( 'NONE',  ( 546.9933062987981900, 183.9811879108666500, 0.0000000000000000000 ) ) ;
#106 = PRESENTATION_STYLE_ASSIGNMENT (( #137 ) ) ;
#107 = DIRECTION ( 'NONE',  ( -1.000000000000000000, -0.0000000000000000000, -0.0000000000000000000 ) ) ;
#108 = EDGE_CURVE ( 'NONE', #138, #33, #182, .T. ) ;
#109 = VERTEX_POINT ( 'NONE', #148 ) ;
#110 = APPLICATION_PROTOCOL_DEFINITION ( 'draft international standard', 'automotive_design', 1998, #153 ) ;
#111 =( NAMED_UNIT ( * ) SI_UNIT ( $, .STERADIAN. ) SOLID_ANGLE_UNIT ( ) );
#112 = SURFACE_STYLE_FILL_AREA ( #94 ) ;
#113 = VECTOR ( 'NONE', #176, 1000.000000000000000 ) ;
#114 = AXIS2_PLACEMENT_3D ( 'NONE', #134, #93, #24 ) ;
#115 = SHAPE_DEFINITION_REPRESENTATION ( #91, #59 ) ;
#116 = ORIENTED_EDGE ( 'NONE', *, *, #99, .F. ) ;
#117 = CARTESIAN_POINT ( 'NONE',  ( 540.4633062987982200, 183.9811879108666500, 0.0000000000000000000 ) ) ;
#118 = FILL_AREA_STYLE_COLOUR ( '', #119 ) ;
#119 = COLOUR_RGB ( '',1.000000000000000000, 1.000000000000000000, 1.000000000000000000 ) ;
#120 = DIRECTION ( 'NONE',  ( 0.0000000000000000000, 1.224646799147353200E-016, -1.000000000000000000 ) ) ;
#121 = MANIFOLD_SOLID_BREP ( 'Ðý×ª1', #126 ) ;
#122 =( LENGTH_UNIT ( ) NAMED_UNIT ( * ) SI_UNIT ( .MILLI., .METRE. ) );
#123 = AXIS2_PLACEMENT_3D ( 'NONE', #95, #107, #136 ) ;
#124 = ORIENTED_EDGE ( 'NONE', *, *, #63, .T. ) ;
#125 = FACE_OUTER_BOUND ( 'NONE', #61, .T. ) ;
#126 = CLOSED_SHELL ( 'NONE', ( #170, #81, #58, #42, #171 ) ) ;
#127 = CIRCLE ( 'NONE', #4, 20.00000000000001800 ) ;
#128 = EDGE_CURVE ( 'NONE', #138, #70, #49, .T. ) ;
#129 = ORIENTED_EDGE ( 'NONE', *, *, #8, .T. ) ;
#130 = CIRCLE ( 'NONE', #20, 20.00000000000001800 ) ;
#131 = AXIS2_PLACEMENT_3D ( 'NONE', #117, #35, #67 ) ;
#132 = EDGE_LOOP ( 'NONE', ( #84, #173, #83, #178, #100 ) ) ;
#133 = CARTESIAN_POINT ( 'NONE',  ( 542.9633062987982200, 183.9811879108666500, 0.0000000000000000000 ) ) ;
#134 = CARTESIAN_POINT ( 'NONE',  ( 495.3505147355227200, 183.9811879108666500, 0.0000000000000000000 ) ) ;
#135 = DIRECTION ( 'NONE',  ( 0.0000000000000000000, 1.000000000000000000, 0.0000000000000000000 ) ) ;
#136 = DIRECTION ( 'NONE',  ( 0.0000000000000000000, 0.0000000000000000000, 1.000000000000000000 ) ) ;
#137 = SURFACE_STYLE_USAGE ( .BOTH. , #38 ) ;
#138 = VERTEX_POINT ( 'NONE', #105 ) ;
#139 = CIRCLE ( 'NONE', #141, 20.00000000000001800 ) ;
#140 = EDGE_LOOP ( 'NONE', ( #88, #55, #166, #98 ) ) ;
#141 = AXIS2_PLACEMENT_3D ( 'NONE', #147, #66, #26 ) ;
#142 = FACE_OUTER_BOUND ( 'NONE', #132, .T. ) ;
#143 = DIRECTION ( 'NONE',  ( 0.0000000000000000000, 1.000000000000000000, 0.0000000000000000000 ) ) ;
#144 = CARTESIAN_POINT ( 'NONE',  ( 530.9568089790251400, 183.9811879108666500, 0.0000000000000000000 ) ) ;
#145 = EDGE_CURVE ( 'NONE', #78, #33, #22, .T. ) ;
#146 = DIRECTION ( 'NONE',  ( 0.0000000000000000000, 0.0000000000000000000, 1.000000000000000000 ) ) ;
#147 = CARTESIAN_POINT ( 'NONE',  ( 540.4633062987982200, 183.9811879108666500, 0.0000000000000000000 ) ) ;
#148 = CARTESIAN_POINT ( 'NONE',  ( 540.4633062987982200, 183.9811879108666500, -20.00000000000001800 ) ) ;
#149 = PLANE ( 'NONE',  #131 ) ;
#150 = CARTESIAN_POINT ( 'NONE',  ( 542.9633062987982200, 183.9811879108666500, 0.0000000000000000000 ) ) ;
#151 =( NAMED_UNIT ( * ) SI_UNIT ( $, .STERADIAN. ) SOLID_ANGLE_UNIT ( ) );
#152 = LINE ( 'NONE', #86, #113 ) ;
#153 = APPLICATION_CONTEXT ( 'automotive_design' ) ;
#154 = AXIS2_PLACEMENT_3D ( 'NONE', #12, #89, #25 ) ;
#155 = FILL_AREA_STYLE ('',( #118 ) ) ;
#156 = PRODUCT_DEFINITION ( 'Î´Öª', '', #85, #27 ) ;
#157 = AXIS2_PLACEMENT_3D ( 'NONE', #101, #62, #143 ) ;
#158 = ORIENTED_EDGE ( 'NONE', *, *, #108, .T. ) ;
#159 = LINE ( 'NONE', #183, #174 ) ;
#160 =( GEOMETRIC_REPRESENTATION_CONTEXT ( 3 ) GLOBAL_UNCERTAINTY_ASSIGNED_CONTEXT ( ( #6 ) ) GLOBAL_UNIT_ASSIGNED_CONTEXT ( ( #122, #17, #111 ) ) REPRESENTATION_CONTEXT ( 'NONE', 'WORKASPACE' ) );
#161 = DIRECTION ( 'NONE',  ( 0.0000000000000000000, 0.0000000000000000000, 1.000000000000000000 ) ) ;
#162 = ORIENTED_EDGE ( 'NONE', *, *, #145, .T. ) ;
#163 =( GEOMETRIC_REPRESENTATION_CONTEXT ( 3 ) GLOBAL_UNCERTAINTY_ASSIGNED_CONTEXT ( ( #37 ) ) GLOBAL_UNIT_ASSIGNED_CONTEXT ( ( #47, #28, #151 ) ) REPRESENTATION_CONTEXT ( 'NONE', 'WORKASPACE' ) );
#164 = PRESENTATION_STYLE_ASSIGNMENT (( #13 ) ) ;
#165 = DIRECTION ( 'NONE',  ( 0.0000000000000000000, 1.000000000000000000, 1.224646799147353700E-016 ) ) ;
#166 = ORIENTED_EDGE ( 'NONE', *, *, #97, .F. ) ;
#167 = AXIS2_PLACEMENT_3D ( 'NONE', #144, #9, #161 ) ;
#168 = EDGE_LOOP ( 'NONE', ( #44, #158, #31, #72 ) ) ;
#169 = UNCERTAINTY_MEASURE_WITH_UNIT (LENGTH_MEASURE( 1.000000000000000100E-005 ), #69, 'distance_accuracy_value', 'NONE');
#170 = ADVANCED_FACE ( 'NONE', ( #142 ), #74, .T. ) ;
#171 = ADVANCED_FACE ( 'NONE', ( #125 ), #149, .F. ) ;
#172 = PRODUCT_RELATED_PRODUCT_CATEGORY ( 'part', '', ( #73 ) ) ;
#173 = ORIENTED_EDGE ( 'NONE', *, *, #99, .T. ) ;
#174 = VECTOR ( 'NONE', #103, 1000.000000000000000 ) ;
#175 = STYLED_ITEM ( 'NONE', ( #106 ), #59 ) ;
#176 = DIRECTION ( 'NONE',  ( -1.000000000000000000, -0.0000000000000000000, -0.0000000000000000000 ) ) ;
#177 = AXIS2_PLACEMENT_3D ( 'NONE', #52, #181, #51 ) ;
#178 = ORIENTED_EDGE ( 'NONE', *, *, #16, .F. ) ;
#179 = CARTESIAN_POINT ( 'NONE',  ( 542.9633062987982200, 183.9811879108666500, -20.00000000000001800 ) ) ;
#180 = DIRECTION ( 'NONE',  ( -0.0000000000000000000, 0.0000000000000000000, -1.000000000000000000 ) ) ;
#181 = DIRECTION ( 'NONE',  ( -1.000000000000000000, -0.0000000000000000000, -0.0000000000000000000 ) ) ;
#182 = CIRCLE ( 'NONE', #96, 51.64279156327544500 ) ;
#183 = CARTESIAN_POINT ( 'NONE',  ( 530.9568089790251400, 183.9811879108666500, -20.00000000000001800 ) ) ;
#184 =( NAMED_UNIT ( * ) SI_UNIT ( $, .STERADIAN. ) SOLID_ANGLE_UNIT ( ) );
#185 = DIRECTION ( 'NONE',  ( 0.0000000000000000000, 0.0000000000000000000, 1.000000000000000000 ) ) ;
#186 = VERTEX_POINT ( 'NONE', #54 ) ;
ENDSEC;
END-ISO-10303-21;
