ISO-10303-21;
HEADER;
FILE_DESCRIPTION (( 'STEP AP214' ),
    '1' );
FILE_NAME ('100068.STEP',
    '2019-04-30T09:10:37',
    ( '' ),
    ( '' ),
    'SwSTEP 2.0',
    'SolidWorks 2016',
    '' );
FILE_SCHEMA (( 'AUTOMOTIVE_DESIGN' ));
ENDSEC;

DATA;
#1 = PRODUCT_RELATED_PRODUCT_CATEGORY ( 'part', '', ( #57 ) ) ;
#2 = DIRECTION ( 'NONE',  ( 0.0000000000000000000, 0.0000000000000000000, 1.000000000000000000 ) ) ;
#3 = VERTEX_POINT ( 'NONE', #59 ) ;
#4 = CIRCLE ( 'NONE', #154, 24.99999999999999300 ) ;
#5 = AXIS2_PLACEMENT_3D ( 'NONE', #169, #80, #35 ) ;
#6 = EDGE_CURVE ( 'NONE', #3, #38, #147, .T. ) ;
#7 = CYLINDRICAL_SURFACE ( 'NONE', #76, 24.99999999999999300 ) ;
#8 = FACE_OUTER_BOUND ( 'NONE', #107, .T. ) ;
#9 = EDGE_CURVE ( 'NONE', #181, #58, #11, .T. ) ;
#10 = DIRECTION ( 'NONE',  ( 1.000000000000000000, 0.0000000000000000000, 0.0000000000000000000 ) ) ;
#11 = CIRCLE ( 'NONE', #95, 24.99999999999999300 ) ;
#12 = CARTESIAN_POINT ( 'NONE',  ( 399.6496766490786300, 74.91885540296641500, 0.0000000000000000000 ) ) ;
#13 = CARTESIAN_POINT ( 'NONE',  ( 390.2274372118913600, 74.91885540296641500, 24.99999999999999300 ) ) ;
#14 =( NAMED_UNIT ( * ) SI_UNIT ( $, .STERADIAN. ) SOLID_ANGLE_UNIT ( ) );
#15 = MECHANICAL_DESIGN_GEOMETRIC_PRESENTATION_REPRESENTATION (  '', ( #134 ), #121 ) ;
#16 =( LENGTH_UNIT ( ) NAMED_UNIT ( * ) SI_UNIT ( .MILLI., .METRE. ) );
#17 = SURFACE_STYLE_USAGE ( .BOTH. , #106 ) ;
#18 = FACE_OUTER_BOUND ( 'NONE', #148, .T. ) ;
#19 = EDGE_CURVE ( 'NONE', #38, #3, #21, .T. ) ;
#20 = UNCERTAINTY_MEASURE_WITH_UNIT (LENGTH_MEASURE( 1.000000000000000100E-005 ), #138, 'distance_accuracy_value', 'NONE');
#21 = CIRCLE ( 'NONE', #5, 24.99999999999999300 ) ;
#22 = SURFACE_STYLE_FILL_AREA ( #81 ) ;
#23 = PRODUCT_DEFINITION_SHAPE ( 'NONE', 'NONE',  #123 ) ;
#24 = AXIS2_PLACEMENT_3D ( 'NONE', #122, #30, #142 ) ;
#25 = CARTESIAN_POINT ( 'NONE',  ( 402.6496766490786300, 99.91885540296641500, 0.0000000000000000000 ) ) ;
#26 = ORIENTED_EDGE ( 'NONE', *, *, #6, .F. ) ;
#27 = DIRECTION ( 'NONE',  ( 0.0000000000000000000, 1.000000000000000000, 0.0000000000000000000 ) ) ;
#28 = CARTESIAN_POINT ( 'NONE',  ( 402.6496766490786300, 74.91885540296641500, 0.0000000000000000000 ) ) ;
#29 =( LENGTH_UNIT ( ) NAMED_UNIT ( * ) SI_UNIT ( .MILLI., .METRE. ) );
#30 = DIRECTION ( 'NONE',  ( 1.000000000000000000, 0.0000000000000000000, 0.0000000000000000000 ) ) ;
#31 = VERTEX_POINT ( 'NONE', #25 ) ;
#32 = AXIS2_PLACEMENT_3D ( 'NONE', #171, #117, #97 ) ;
#33 = DIRECTION ( 'NONE',  ( -0.0000000000000000000, 0.0000000000000000000, 1.000000000000000000 ) ) ;
#34 = ORIENTED_EDGE ( 'NONE', *, *, #6, .T. ) ;
#35 = DIRECTION ( 'NONE',  ( 0.0000000000000000000, 0.0000000000000000000, 1.000000000000000000 ) ) ;
#36 = SURFACE_SIDE_STYLE ('',( #22 ) ) ;
#37 = EDGE_LOOP ( 'NONE', ( #102, #178, #72, #153 ) ) ;
#38 = VERTEX_POINT ( 'NONE', #155 ) ;
#39 = DIRECTION ( 'NONE',  ( 0.0000000000000000000, 1.000000000000000000, 1.224646799147353200E-016 ) ) ;
#40 = CARTESIAN_POINT ( 'NONE',  ( 0.0000000000000000000, 0.0000000000000000000, 0.0000000000000000000 ) ) ;
#41 =( NAMED_UNIT ( * ) PLANE_ANGLE_UNIT ( ) SI_UNIT ( $, .RADIAN. ) );
#42 = DIRECTION ( 'NONE',  ( 0.0000000000000000000, 1.224646799147353200E-016, -1.000000000000000000 ) ) ;
#43 = ORIENTED_EDGE ( 'NONE', *, *, #79, .F. ) ;
#44 = AXIS2_PLACEMENT_3D ( 'NONE', #101, #114, #115 ) ;
#45 = FACE_OUTER_BOUND ( 'NONE', #37, .T. ) ;
#46 = ADVANCED_FACE ( 'NONE', ( #45 ), #166, .T. ) ;
#47 = VERTEX_POINT ( 'NONE', #129 ) ;
#48 = AXIS2_PLACEMENT_3D ( 'NONE', #12, #61, #82 ) ;
#49 = ORIENTED_EDGE ( 'NONE', *, *, #176, .F. ) ;
#50 = ORIENTED_EDGE ( 'NONE', *, *, #19, .T. ) ;
#51 = DIRECTION ( 'NONE',  ( -0.0000000000000000000, 0.0000000000000000000, -1.000000000000000000 ) ) ;
#52 =( NAMED_UNIT ( * ) PLANE_ANGLE_UNIT ( ) SI_UNIT ( $, .RADIAN. ) );
#53 = MANIFOLD_SOLID_BREP ( 'Ðý×ª1', #90 ) ;
#54 = SURFACE_STYLE_FILL_AREA ( #68 ) ;
#55 = PLANE ( 'NONE',  #24 ) ;
#56 = AXIS2_PLACEMENT_3D ( 'NONE', #40, #2, #145 ) ;
#57 = PRODUCT ( '100068', '100068', '', ( #65 ) ) ;
#58 = VERTEX_POINT ( 'NONE', #127 ) ;
#59 = CARTESIAN_POINT ( 'NONE',  ( 399.6496766490786300, 74.91885540296641500, -24.99999999999999300 ) ) ;
#60 = CARTESIAN_POINT ( 'NONE',  ( 402.6496766490786300, 74.91885540296641500, 0.0000000000000000000 ) ) ;
#61 = DIRECTION ( 'NONE',  ( -1.000000000000000000, -0.0000000000000000000, -0.0000000000000000000 ) ) ;
#62 = PRESENTATION_STYLE_ASSIGNMENT (( #128 ) ) ;
#63 = DIRECTION ( 'NONE',  ( 0.0000000000000000000, 0.0000000000000000000, 1.000000000000000000 ) ) ;
#64 = DIRECTION ( 'NONE',  ( 0.0000000000000000000, 0.0000000000000000000, 1.000000000000000000 ) ) ;
#65 = PRODUCT_CONTEXT ( 'NONE', #161, 'mechanical' ) ;
#66 = FILL_AREA_STYLE_COLOUR ( '', #136 ) ;
#67 = SPHERICAL_SURFACE ( 'NONE', #32, 51.67461240310073100 ) ;
#68 = FILL_AREA_STYLE ('',( #66 ) ) ;
#69 =( GEOMETRIC_REPRESENTATION_CONTEXT ( 3 ) GLOBAL_UNCERTAINTY_ASSIGNED_CONTEXT ( ( #110 ) ) GLOBAL_UNIT_ASSIGNED_CONTEXT ( ( #29, #85, #133 ) ) REPRESENTATION_CONTEXT ( 'NONE', 'WORKASPACE' ) );
#70 = ORIENTED_EDGE ( 'NONE', *, *, #9, .T. ) ;
#71 = LINE ( 'NONE', #109, #139 ) ;
#72 = ORIENTED_EDGE ( 'NONE', *, *, #180, .F. ) ;
#73 = ORIENTED_EDGE ( 'NONE', *, *, #176, .T. ) ;
#74 = FACE_OUTER_BOUND ( 'NONE', #149, .T. ) ;
#75 = EDGE_CURVE ( 'NONE', #172, #31, #162, .T. ) ;
#76 = AXIS2_PLACEMENT_3D ( 'NONE', #77, #182, #64 ) ;
#77 = CARTESIAN_POINT ( 'NONE',  ( 390.2274372118913600, 74.91885540296641500, 0.0000000000000000000 ) ) ;
#78 = ORIENTED_EDGE ( 'NONE', *, *, #132, .T. ) ;
#79 = EDGE_CURVE ( 'NONE', #31, #47, #165, .T. ) ;
#80 = DIRECTION ( 'NONE',  ( -1.000000000000000000, -0.0000000000000000000, -0.0000000000000000000 ) ) ;
#81 = FILL_AREA_STYLE ('',( #137 ) ) ;
#82 = DIRECTION ( 'NONE',  ( 0.0000000000000000000, 0.0000000000000000000, 1.000000000000000000 ) ) ;
#83 = DIRECTION ( 'NONE',  ( -1.000000000000000000, -0.0000000000000000000, -0.0000000000000000000 ) ) ;
#84 = CARTESIAN_POINT ( 'NONE',  ( 402.6496766490786300, 49.91885540296640000, -3.061616997868381500E-015 ) ) ;
#85 =( NAMED_UNIT ( * ) PLANE_ANGLE_UNIT ( ) SI_UNIT ( $, .RADIAN. ) );
#86 = PRESENTATION_LAYER_ASSIGNMENT (  '', '', ( #134 ) ) ;
#87 = APPLICATION_PROTOCOL_DEFINITION ( 'draft international standard', 'automotive_design', 1998, #161 ) ;
#88 = EDGE_LOOP ( 'NONE', ( #119, #174, #185, #43 ) ) ;
#89 = CIRCLE ( 'NONE', #160, 24.99999999999999300 ) ;
#90 = CLOSED_SHELL ( 'NONE', ( #104, #118, #46, #143, #163 ) ) ;
#91 = PRESENTATION_STYLE_ASSIGNMENT (( #17 ) ) ;
#92 = EDGE_CURVE ( 'NONE', #47, #181, #4, .T. ) ;
#93 = STYLED_ITEM ( 'NONE', ( #91 ), #170 ) ;
#94 = ORIENTED_EDGE ( 'NONE', *, *, #180, .T. ) ;
#95 = AXIS2_PLACEMENT_3D ( 'NONE', #28, #168, #156 ) ;
#96 = COLOUR_RGB ( '',1.000000000000000000, 1.000000000000000000, 1.000000000000000000 ) ;
#97 = DIRECTION ( 'NONE',  ( 0.0000000000000000000, 1.000000000000000000, 0.0000000000000000000 ) ) ;
#98 = DIRECTION ( 'NONE',  ( -1.000000000000000000, -0.0000000000000000000, -0.0000000000000000000 ) ) ;
#99 = AXIS2_PLACEMENT_3D ( 'NONE', #120, #42, #39 ) ;
#100 = DIRECTION ( 'NONE',  ( 0.0000000000000000000, 0.0000000000000000000, 1.000000000000000000 ) ) ;
#101 = CARTESIAN_POINT ( 'NONE',  ( 390.2274372118913600, 74.91885540296641500, 0.0000000000000000000 ) ) ;
#102 = ORIENTED_EDGE ( 'NONE', *, *, #152, .F. ) ;
#103 = CYLINDRICAL_SURFACE ( 'NONE', #44, 24.99999999999999300 ) ;
#104 = ADVANCED_FACE ( 'NONE', ( #8 ), #103, .T. ) ;
#105 = CARTESIAN_POINT ( 'NONE',  ( 357.4250642459779200, 74.91885540296638600, 0.0000000000000000000 ) ) ;
#106 = SURFACE_SIDE_STYLE ('',( #54 ) ) ;
#107 = EDGE_LOOP ( 'NONE', ( #124, #73, #164, #131, #94 ) ) ;
#108 = MECHANICAL_DESIGN_GEOMETRIC_PRESENTATION_REPRESENTATION (  '', ( #93 ), #69 ) ;
#109 = CARTESIAN_POINT ( 'NONE',  ( 390.2274372118913600, 74.91885540296641500, -24.99999999999999300 ) ) ;
#110 = UNCERTAINTY_MEASURE_WITH_UNIT (LENGTH_MEASURE( 1.000000000000000100E-005 ), #29, 'distance_accuracy_value', 'NONE');
#111 = PRODUCT_DEFINITION_CONTEXT ( 'detailed design', #159, 'design' ) ;
#112 = AXIS2_PLACEMENT_3D ( 'NONE', #105, #51, #27 ) ;
#113 =( GEOMETRIC_REPRESENTATION_CONTEXT ( 3 ) GLOBAL_UNCERTAINTY_ASSIGNED_CONTEXT ( ( #141 ) ) GLOBAL_UNIT_ASSIGNED_CONTEXT ( ( #16, #41, #184 ) ) REPRESENTATION_CONTEXT ( 'NONE', 'WORKASPACE' ) );
#114 = DIRECTION ( 'NONE',  ( -1.000000000000000000, -0.0000000000000000000, -0.0000000000000000000 ) ) ;
#115 = DIRECTION ( 'NONE',  ( 0.0000000000000000000, 0.0000000000000000000, 1.000000000000000000 ) ) ;
#116 = VECTOR ( 'NONE', #130, 1000.000000000000000 ) ;
#117 = DIRECTION ( 'NONE',  ( -0.0000000000000000000, 0.0000000000000000000, -1.000000000000000000 ) ) ;
#118 = ADVANCED_FACE ( 'NONE', ( #179 ), #67, .T. ) ;
#119 = ORIENTED_EDGE ( 'NONE', *, *, #75, .F. ) ;
#120 = CARTESIAN_POINT ( 'NONE',  ( 357.4250642459779200, 74.91885540296638600, 0.0000000000000000000 ) ) ;
#121 =( GEOMETRIC_REPRESENTATION_CONTEXT ( 3 ) GLOBAL_UNCERTAINTY_ASSIGNED_CONTEXT ( ( #20 ) ) GLOBAL_UNIT_ASSIGNED_CONTEXT ( ( #138, #52, #14 ) ) REPRESENTATION_CONTEXT ( 'NONE', 'WORKASPACE' ) );
#122 = CARTESIAN_POINT ( 'NONE',  ( 399.6496766490786300, 74.91885540296641500, 0.0000000000000000000 ) ) ;
#123 = PRODUCT_DEFINITION ( 'Î´Öª', '', #177, #111 ) ;
#124 = ORIENTED_EDGE ( 'NONE', *, *, #79, .T. ) ;
#125 = LINE ( 'NONE', #13, #116 ) ;
#126 = AXIS2_PLACEMENT_3D ( 'NONE', #173, #33, #10 ) ;
#127 = CARTESIAN_POINT ( 'NONE',  ( 402.6496766490786300, 74.91885540296641500, 24.99999999999999300 ) ) ;
#128 = SURFACE_STYLE_USAGE ( .BOTH. , #36 ) ;
#129 = CARTESIAN_POINT ( 'NONE',  ( 402.6496766490786300, 74.91885540296641500, -24.99999999999999300 ) ) ;
#130 = DIRECTION ( 'NONE',  ( -1.000000000000000000, -0.0000000000000000000, -0.0000000000000000000 ) ) ;
#131 = ORIENTED_EDGE ( 'NONE', *, *, #132, .F. ) ;
#132 = EDGE_CURVE ( 'NONE', #58, #38, #125, .T. ) ;
#133 =( NAMED_UNIT ( * ) SI_UNIT ( $, .STERADIAN. ) SOLID_ANGLE_UNIT ( ) );
#134 = STYLED_ITEM ( 'NONE', ( #62 ), #53 ) ;
#135 = AXIS2_PLACEMENT_3D ( 'NONE', #60, #98, #63 ) ;
#136 = COLOUR_RGB ( '',1.000000000000000000, 1.000000000000000000, 1.000000000000000000 ) ;
#137 = FILL_AREA_STYLE_COLOUR ( '', #96 ) ;
#138 =( LENGTH_UNIT ( ) NAMED_UNIT ( * ) SI_UNIT ( .MILLI., .METRE. ) );
#139 = VECTOR ( 'NONE', #83, 1000.000000000000000 ) ;
#140 = CARTESIAN_POINT ( 'NONE',  ( 402.6496766490786300, 74.91885540296641500, 0.0000000000000000000 ) ) ;
#141 = UNCERTAINTY_MEASURE_WITH_UNIT (LENGTH_MEASURE( 1.000000000000000100E-005 ), #16, 'distance_accuracy_value', 'NONE');
#142 = DIRECTION ( 'NONE',  ( 0.0000000000000000000, 0.0000000000000000000, -1.000000000000000000 ) ) ;
#143 = ADVANCED_FACE ( 'NONE', ( #74 ), #7, .T. ) ;
#144 = ORIENTED_EDGE ( 'NONE', *, *, #92, .T. ) ;
#145 = DIRECTION ( 'NONE',  ( 1.000000000000000000, 0.0000000000000000000, 0.0000000000000000000 ) ) ;
#146 = APPLICATION_PROTOCOL_DEFINITION ( 'draft international standard', 'automotive_design', 1998, #159 ) ;
#147 = CIRCLE ( 'NONE', #48, 24.99999999999999300 ) ;
#148 = EDGE_LOOP ( 'NONE', ( #50, #34 ) ) ;
#149 = EDGE_LOOP ( 'NONE', ( #49, #144, #70, #78, #26 ) ) ;
#150 = SHAPE_DEFINITION_REPRESENTATION ( #23, #170 ) ;
#151 = CIRCLE ( 'NONE', #99, 51.67461240310073100 ) ;
#152 = EDGE_CURVE ( 'NONE', #172, #181, #151, .T. ) ;
#153 = ORIENTED_EDGE ( 'NONE', *, *, #9, .F. ) ;
#154 = AXIS2_PLACEMENT_3D ( 'NONE', #140, #183, #100 ) ;
#155 = CARTESIAN_POINT ( 'NONE',  ( 399.6496766490786300, 74.91885540296641500, 24.99999999999999300 ) ) ;
#156 = DIRECTION ( 'NONE',  ( 0.0000000000000000000, 0.0000000000000000000, 1.000000000000000000 ) ) ;
#157 = CARTESIAN_POINT ( 'NONE',  ( 409.0996766490786700, 74.91885540296638600, 0.0000000000000000000 ) ) ;
#158 = DIRECTION ( 'NONE',  ( 0.0000000000000000000, 0.0000000000000000000, 1.000000000000000000 ) ) ;
#159 = APPLICATION_CONTEXT ( 'automotive_design' ) ;
#160 = AXIS2_PLACEMENT_3D ( 'NONE', #175, #186, #158 ) ;
#161 = APPLICATION_CONTEXT ( 'automotive_design' ) ;
#162 = CIRCLE ( 'NONE', #126, 51.67461240310073100 ) ;
#163 = ADVANCED_FACE ( 'NONE', ( #18 ), #55, .F. ) ;
#164 = ORIENTED_EDGE ( 'NONE', *, *, #19, .F. ) ;
#165 = CIRCLE ( 'NONE', #135, 24.99999999999999300 ) ;
#166 = SPHERICAL_SURFACE ( 'NONE', #112, 51.67461240310073100 ) ;
#167 = PRESENTATION_LAYER_ASSIGNMENT (  '', '', ( #93 ) ) ;
#168 = DIRECTION ( 'NONE',  ( -1.000000000000000000, -0.0000000000000000000, -0.0000000000000000000 ) ) ;
#169 = CARTESIAN_POINT ( 'NONE',  ( 399.6496766490786300, 74.91885540296641500, 0.0000000000000000000 ) ) ;
#170 = ADVANCED_BREP_SHAPE_REPRESENTATION ( '100068', ( #53, #56 ), #113 ) ;
#171 = CARTESIAN_POINT ( 'NONE',  ( 357.4250642459779200, 74.91885540296638600, 0.0000000000000000000 ) ) ;
#172 = VERTEX_POINT ( 'NONE', #157 ) ;
#173 = CARTESIAN_POINT ( 'NONE',  ( 357.4250642459779200, 74.91885540296638600, 0.0000000000000000000 ) ) ;
#174 = ORIENTED_EDGE ( 'NONE', *, *, #152, .T. ) ;
#175 = CARTESIAN_POINT ( 'NONE',  ( 402.6496766490786300, 74.91885540296641500, 0.0000000000000000000 ) ) ;
#176 = EDGE_CURVE ( 'NONE', #47, #3, #71, .T. ) ;
#177 = PRODUCT_DEFINITION_FORMATION_WITH_SPECIFIED_SOURCE ( 'ÈÎºÎ', '', #57, .NOT_KNOWN. ) ;
#178 = ORIENTED_EDGE ( 'NONE', *, *, #75, .T. ) ;
#179 = FACE_OUTER_BOUND ( 'NONE', #88, .T. ) ;
#180 = EDGE_CURVE ( 'NONE', #58, #31, #89, .T. ) ;
#181 = VERTEX_POINT ( 'NONE', #84 ) ;
#182 = DIRECTION ( 'NONE',  ( -1.000000000000000000, -0.0000000000000000000, -0.0000000000000000000 ) ) ;
#183 = DIRECTION ( 'NONE',  ( -1.000000000000000000, -0.0000000000000000000, -0.0000000000000000000 ) ) ;
#184 =( NAMED_UNIT ( * ) SI_UNIT ( $, .STERADIAN. ) SOLID_ANGLE_UNIT ( ) );
#185 = ORIENTED_EDGE ( 'NONE', *, *, #92, .F. ) ;
#186 = DIRECTION ( 'NONE',  ( -1.000000000000000000, -0.0000000000000000000, -0.0000000000000000000 ) ) ;
ENDSEC;
END-ISO-10303-21;
