ISO-10303-21;
HEADER;
FILE_DESCRIPTION (( 'STEP AP214' ),
    '1' );
FILE_NAME ('100391.STEP',
    '2019-06-05T02:04:57',
    ( '' ),
    ( '' ),
    'SwSTEP 2.0',
    'SolidWorks 2016',
    '' );
FILE_SCHEMA (( 'AUTOMOTIVE_DESIGN' ));
ENDSEC;

DATA;
#1 = LINE ( 'NONE', #103, #135 ) ;
#2 = PRODUCT_DEFINITION ( 'Î´Öª', '', #53, #150 ) ;
#3 = SPHERICAL_SURFACE ( 'NONE', #169, 231.1142857142849300 ) ;
#4 = AXIS2_PLACEMENT_3D ( 'NONE', #142, #182, #18 ) ;
#5 = ORIENTED_EDGE ( 'NONE', *, *, #50, .T. ) ;
#6 = ADVANCED_FACE ( 'NONE', ( #92 ), #3, .T. ) ;
#7 = DIRECTION ( 'NONE',  ( 1.000000000000000000, 0.0000000000000000000, 0.0000000000000000000 ) ) ;
#8 = EDGE_CURVE ( 'NONE', #34, #47, #130, .T. ) ;
#9 = MANIFOLD_SOLID_BREP ( 'Ðý×ª1', #175 ) ;
#10 = DIRECTION ( 'NONE',  ( -1.000000000000000000, -0.0000000000000000000, -0.0000000000000000000 ) ) ;
#11 = DIRECTION ( 'NONE',  ( 0.0000000000000000000, 0.0000000000000000000, 1.000000000000000000 ) ) ;
#12 =( LENGTH_UNIT ( ) NAMED_UNIT ( * ) SI_UNIT ( .MILLI., .METRE. ) );
#13 = FILL_AREA_STYLE_COLOUR ( '', #136 ) ;
#14 = DIRECTION ( 'NONE',  ( -1.000000000000000000, -0.0000000000000000000, -0.0000000000000000000 ) ) ;
#15 = FILL_AREA_STYLE ('',( #44 ) ) ;
#16 = CARTESIAN_POINT ( 'NONE',  ( 232.0208200792423800, 130.4671098528243900, 0.0000000000000000000 ) ) ;
#17 = VERTEX_POINT ( 'NONE', #167 ) ;
#18 = DIRECTION ( 'NONE',  ( 1.000000000000000000, 0.0000000000000000000, 0.0000000000000000000 ) ) ;
#19 = PRESENTATION_STYLE_ASSIGNMENT (( #54 ) ) ;
#20 = EDGE_CURVE ( 'NONE', #47, #111, #31, .T. ) ;
#21 = CIRCLE ( 'NONE', #137, 25.40000000000000600 ) ;
#22 = CIRCLE ( 'NONE', #181, 25.40000000000000600 ) ;
#23 = STYLED_ITEM ( 'NONE', ( #19 ), #9 ) ;
#24 = ADVANCED_FACE ( 'NONE', ( #75 ), #155, .F. ) ;
#25 = CARTESIAN_POINT ( 'NONE',  ( 5.306534364957457200, 130.4671098528243900, 0.0000000000000000000 ) ) ;
#26 = DIRECTION ( 'NONE',  ( 0.0000000000000000000, 1.000000000000000000, 0.0000000000000000000 ) ) ;
#27 = DIRECTION ( 'NONE',  ( -1.000000000000000000, -0.0000000000000000000, -0.0000000000000000000 ) ) ;
#28 = CARTESIAN_POINT ( 'NONE',  ( 232.0208200792423800, 130.4671098528243900, 0.0000000000000000000 ) ) ;
#29 = SURFACE_SIDE_STYLE ('',( #134 ) ) ;
#30 = PRODUCT_CONTEXT ( 'NONE', #160, 'mechanical' ) ;
#31 = LINE ( 'NONE', #180, #97 ) ;
#32 = DIRECTION ( 'NONE',  ( 1.000000000000000000, 0.0000000000000000000, 0.0000000000000000000 ) ) ;
#33 = SHAPE_DEFINITION_REPRESENTATION ( #163, #145 ) ;
#34 = VERTEX_POINT ( 'NONE', #65 ) ;
#35 = PRODUCT_RELATED_PRODUCT_CATEGORY ( 'part', '', ( #174 ) ) ;
#36 = ORIENTED_EDGE ( 'NONE', *, *, #20, .T. ) ;
#37 = CARTESIAN_POINT ( 'NONE',  ( 235.0208200792423800, 130.4671098528243900, 0.0000000000000000000 ) ) ;
#38 = AXIS2_PLACEMENT_3D ( 'NONE', #95, #84, #11 ) ;
#39 = ADVANCED_FACE ( 'NONE', ( #138 ), #168, .T. ) ;
#40 = DIRECTION ( 'NONE',  ( 0.0000000000000000000, 0.0000000000000000000, 1.000000000000000000 ) ) ;
#41 = DIRECTION ( 'NONE',  ( 0.0000000000000000000, 0.0000000000000000000, -1.000000000000000000 ) ) ;
#42 = DIRECTION ( 'NONE',  ( 0.0000000000000000000, 0.0000000000000000000, 1.000000000000000000 ) ) ;
#43 =( GEOMETRIC_REPRESENTATION_CONTEXT ( 3 ) GLOBAL_UNCERTAINTY_ASSIGNED_CONTEXT ( ( #164 ) ) GLOBAL_UNIT_ASSIGNED_CONTEXT ( ( #129, #73, #59 ) ) REPRESENTATION_CONTEXT ( 'NONE', 'WORKASPACE' ) );
#44 = FILL_AREA_STYLE_COLOUR ( '', #156 ) ;
#45 = ORIENTED_EDGE ( 'NONE', *, *, #162, .F. ) ;
#46 =( GEOMETRIC_REPRESENTATION_CONTEXT ( 3 ) GLOBAL_UNCERTAINTY_ASSIGNED_CONTEXT ( ( #133 ) ) GLOBAL_UNIT_ASSIGNED_CONTEXT ( ( #153, #110, #52 ) ) REPRESENTATION_CONTEXT ( 'NONE', 'WORKASPACE' ) );
#47 = VERTEX_POINT ( 'NONE', #68 ) ;
#48 = ORIENTED_EDGE ( 'NONE', *, *, #108, .T. ) ;
#49 = AXIS2_PLACEMENT_3D ( 'NONE', #171, #101, #42 ) ;
#50 = EDGE_CURVE ( 'NONE', #118, #111, #119, .T. ) ;
#51 = CARTESIAN_POINT ( 'NONE',  ( 220.3307464569769000, 130.4671098528243900, 0.0000000000000000000 ) ) ;
#52 =( NAMED_UNIT ( * ) SI_UNIT ( $, .STERADIAN. ) SOLID_ANGLE_UNIT ( ) );
#53 = PRODUCT_DEFINITION_FORMATION_WITH_SPECIFIED_SOURCE ( 'ÈÎºÎ', '', #174, .NOT_KNOWN. ) ;
#54 = SURFACE_STYLE_USAGE ( .BOTH. , #109 ) ;
#55 = APPLICATION_CONTEXT ( 'automotive_design' ) ;
#56 = CARTESIAN_POINT ( 'NONE',  ( 5.306534364957457200, 130.4671098528243900, 0.0000000000000000000 ) ) ;
#57 = ORIENTED_EDGE ( 'NONE', *, *, #96, .T. ) ;
#58 =( NAMED_UNIT ( * ) PLANE_ANGLE_UNIT ( ) SI_UNIT ( $, .RADIAN. ) );
#59 =( NAMED_UNIT ( * ) SI_UNIT ( $, .STERADIAN. ) SOLID_ANGLE_UNIT ( ) );
#60 =( GEOMETRIC_REPRESENTATION_CONTEXT ( 3 ) GLOBAL_UNCERTAINTY_ASSIGNED_CONTEXT ( ( #77 ) ) GLOBAL_UNIT_ASSIGNED_CONTEXT ( ( #12, #58, #115 ) ) REPRESENTATION_CONTEXT ( 'NONE', 'WORKASPACE' ) );
#61 = CIRCLE ( 'NONE', #166, 231.1142857142849300 ) ;
#62 = ORIENTED_EDGE ( 'NONE', *, *, #132, .F. ) ;
#63 = CIRCLE ( 'NONE', #49, 25.40000000000000600 ) ;
#64 = ORIENTED_EDGE ( 'NONE', *, *, #108, .F. ) ;
#65 = CARTESIAN_POINT ( 'NONE',  ( 235.0208200792423600, 105.0671098528243300, -3.110602869834284400E-015 ) ) ;
#66 = MECHANICAL_DESIGN_GEOMETRIC_PRESENTATION_REPRESENTATION (  '', ( #176 ), #43 ) ;
#67 = DIRECTION ( 'NONE',  ( 0.0000000000000000000, 1.000000000000000000, 0.0000000000000000000 ) ) ;
#68 = CARTESIAN_POINT ( 'NONE',  ( 235.0208200792423800, 130.4671098528243900, 25.40000000000000600 ) ) ;
#69 = PRESENTATION_STYLE_ASSIGNMENT (( #125 ) ) ;
#70 = ORIENTED_EDGE ( 'NONE', *, *, #8, .T. ) ;
#71 = CARTESIAN_POINT ( 'NONE',  ( 232.0208200792423800, 130.4671098528243900, -25.40000000000000600 ) ) ;
#72 = DIRECTION ( 'NONE',  ( 0.0000000000000000000, 1.224646799147353200E-016, -1.000000000000000000 ) ) ;
#73 =( NAMED_UNIT ( * ) PLANE_ANGLE_UNIT ( ) SI_UNIT ( $, .RADIAN. ) );
#74 = ORIENTED_EDGE ( 'NONE', *, *, #162, .T. ) ;
#75 = FACE_OUTER_BOUND ( 'NONE', #78, .T. ) ;
#76 = EDGE_LOOP ( 'NONE', ( #149, #74, #70, #36, #141 ) ) ;
#77 = UNCERTAINTY_MEASURE_WITH_UNIT (LENGTH_MEASURE( 1.000000000000000100E-005 ), #12, 'distance_accuracy_value', 'NONE');
#78 = EDGE_LOOP ( 'NONE', ( #48, #5 ) ) ;
#79 = AXIS2_PLACEMENT_3D ( 'NONE', #113, #127, #86 ) ;
#80 = EDGE_LOOP ( 'NONE', ( #165, #107, #45, #178 ) ) ;
#81 = ADVANCED_FACE ( 'NONE', ( #98 ), #146, .T. ) ;
#82 = CARTESIAN_POINT ( 'NONE',  ( 5.306534364957457200, 130.4671098528243900, 0.0000000000000000000 ) ) ;
#83 = FILL_AREA_STYLE ('',( #13 ) ) ;
#84 = DIRECTION ( 'NONE',  ( -1.000000000000000000, -0.0000000000000000000, -0.0000000000000000000 ) ) ;
#85 = MECHANICAL_DESIGN_GEOMETRIC_PRESENTATION_REPRESENTATION (  '', ( #23 ), #46 ) ;
#86 = DIRECTION ( 'NONE',  ( 0.0000000000000000000, 0.0000000000000000000, 1.000000000000000000 ) ) ;
#87 = CARTESIAN_POINT ( 'NONE',  ( 235.0208200792423800, 130.4671098528243900, 0.0000000000000000000 ) ) ;
#88 = CARTESIAN_POINT ( 'NONE',  ( 235.0208200792423600, 155.8671098528244600, 0.0000000000000000000 ) ) ;
#89 = DIRECTION ( 'NONE',  ( -0.0000000000000000000, 0.0000000000000000000, 1.000000000000000000 ) ) ;
#90 = CARTESIAN_POINT ( 'NONE',  ( 235.0208200792423800, 130.4671098528243900, 0.0000000000000000000 ) ) ;
#91 = CIRCLE ( 'NONE', #148, 231.1142857142849300 ) ;
#92 = FACE_OUTER_BOUND ( 'NONE', #80, .T. ) ;
#93 = EDGE_CURVE ( 'NONE', #47, #179, #63, .T. ) ;
#94 = EDGE_CURVE ( 'NONE', #117, #179, #91, .T. ) ;
#95 = CARTESIAN_POINT ( 'NONE',  ( 232.0208200792423800, 130.4671098528243900, 0.0000000000000000000 ) ) ;
#96 = EDGE_CURVE ( 'NONE', #179, #17, #21, .T. ) ;
#97 = VECTOR ( 'NONE', #140, 1000.000000000000000 ) ;
#98 = FACE_OUTER_BOUND ( 'NONE', #159, .T. ) ;
#99 = DIRECTION ( 'NONE',  ( 0.0000000000000000000, 0.0000000000000000000, 1.000000000000000000 ) ) ;
#100 = DIRECTION ( 'NONE',  ( -1.000000000000000000, -0.0000000000000000000, -0.0000000000000000000 ) ) ;
#101 = DIRECTION ( 'NONE',  ( -1.000000000000000000, -0.0000000000000000000, -0.0000000000000000000 ) ) ;
#102 = SURFACE_STYLE_FILL_AREA ( #83 ) ;
#103 = CARTESIAN_POINT ( 'NONE',  ( 220.3307464569769000, 130.4671098528243900, -25.40000000000000600 ) ) ;
#104 = AXIS2_PLACEMENT_3D ( 'NONE', #82, #157, #67 ) ;
#105 = ORIENTED_EDGE ( 'NONE', *, *, #20, .F. ) ;
#106 = EDGE_CURVE ( 'NONE', #17, #118, #1, .T. ) ;
#107 = ORIENTED_EDGE ( 'NONE', *, *, #132, .T. ) ;
#108 = EDGE_CURVE ( 'NONE', #111, #118, #161, .T. ) ;
#109 = SURFACE_SIDE_STYLE ('',( #102 ) ) ;
#110 =( NAMED_UNIT ( * ) PLANE_ANGLE_UNIT ( ) SI_UNIT ( $, .RADIAN. ) );
#111 = VERTEX_POINT ( 'NONE', #143 ) ;
#112 = DIRECTION ( 'NONE',  ( -1.000000000000000000, -0.0000000000000000000, -0.0000000000000000000 ) ) ;
#113 = CARTESIAN_POINT ( 'NONE',  ( 220.3307464569769000, 130.4671098528243900, 0.0000000000000000000 ) ) ;
#114 = EDGE_LOOP ( 'NONE', ( #57, #124, #64, #105, #151 ) ) ;
#115 =( NAMED_UNIT ( * ) SI_UNIT ( $, .STERADIAN. ) SOLID_ANGLE_UNIT ( ) );
#116 = AXIS2_PLACEMENT_3D ( 'NONE', #28, #7, #41 ) ;
#117 = VERTEX_POINT ( 'NONE', #185 ) ;
#118 = VERTEX_POINT ( 'NONE', #71 ) ;
#119 = CIRCLE ( 'NONE', #38, 25.40000000000000600 ) ;
#120 = ORIENTED_EDGE ( 'NONE', *, *, #93, .F. ) ;
#121 = DIRECTION ( 'NONE',  ( -0.0000000000000000000, 0.0000000000000000000, -1.000000000000000000 ) ) ;
#122 = PRESENTATION_LAYER_ASSIGNMENT (  '', '', ( #23 ) ) ;
#123 = CYLINDRICAL_SURFACE ( 'NONE', #79, 25.40000000000000600 ) ;
#124 = ORIENTED_EDGE ( 'NONE', *, *, #106, .T. ) ;
#125 = SURFACE_STYLE_USAGE ( .BOTH. , #29 ) ;
#126 = DIRECTION ( 'NONE',  ( 0.0000000000000000000, 0.0000000000000000000, 1.000000000000000000 ) ) ;
#127 = DIRECTION ( 'NONE',  ( -1.000000000000000000, -0.0000000000000000000, -0.0000000000000000000 ) ) ;
#128 = DIRECTION ( 'NONE',  ( 0.0000000000000000000, 0.0000000000000000000, 1.000000000000000000 ) ) ;
#129 =( LENGTH_UNIT ( ) NAMED_UNIT ( * ) SI_UNIT ( .MILLI., .METRE. ) );
#130 = CIRCLE ( 'NONE', #177, 25.40000000000000600 ) ;
#131 = CARTESIAN_POINT ( 'NONE',  ( 5.306534364957457200, 130.4671098528243900, 0.0000000000000000000 ) ) ;
#132 = EDGE_CURVE ( 'NONE', #117, #34, #61, .T. ) ;
#133 = UNCERTAINTY_MEASURE_WITH_UNIT (LENGTH_MEASURE( 1.000000000000000100E-005 ), #153, 'distance_accuracy_value', 'NONE');
#134 = SURFACE_STYLE_FILL_AREA ( #15 ) ;
#135 = VECTOR ( 'NONE', #14, 1000.000000000000000 ) ;
#136 = COLOUR_RGB ( '',1.000000000000000000, 1.000000000000000000, 1.000000000000000000 ) ;
#137 = AXIS2_PLACEMENT_3D ( 'NONE', #87, #183, #128 ) ;
#138 = FACE_OUTER_BOUND ( 'NONE', #114, .T. ) ;
#139 = APPLICATION_PROTOCOL_DEFINITION ( 'draft international standard', 'automotive_design', 1998, #160 ) ;
#140 = DIRECTION ( 'NONE',  ( -1.000000000000000000, -0.0000000000000000000, -0.0000000000000000000 ) ) ;
#141 = ORIENTED_EDGE ( 'NONE', *, *, #50, .F. ) ;
#142 = CARTESIAN_POINT ( 'NONE',  ( 0.0000000000000000000, 0.0000000000000000000, 0.0000000000000000000 ) ) ;
#143 = CARTESIAN_POINT ( 'NONE',  ( 232.0208200792423800, 130.4671098528243900, 25.40000000000000600 ) ) ;
#144 = DIRECTION ( 'NONE',  ( 0.0000000000000000000, 0.0000000000000000000, 1.000000000000000000 ) ) ;
#145 = ADVANCED_BREP_SHAPE_REPRESENTATION ( '100391', ( #9, #4 ), #60 ) ;
#146 = SPHERICAL_SURFACE ( 'NONE', #104, 231.1142857142849300 ) ;
#147 = AXIS2_PLACEMENT_3D ( 'NONE', #16, #112, #144 ) ;
#148 = AXIS2_PLACEMENT_3D ( 'NONE', #56, #89, #32 ) ;
#149 = ORIENTED_EDGE ( 'NONE', *, *, #106, .F. ) ;
#150 = PRODUCT_DEFINITION_CONTEXT ( 'detailed design', #55, 'design' ) ;
#151 = ORIENTED_EDGE ( 'NONE', *, *, #93, .T. ) ;
#152 = ADVANCED_FACE ( 'NONE', ( #172 ), #123, .T. ) ;
#153 =( LENGTH_UNIT ( ) NAMED_UNIT ( * ) SI_UNIT ( .MILLI., .METRE. ) );
#154 = AXIS2_PLACEMENT_3D ( 'NONE', #51, #27, #126 ) ;
#155 = PLANE ( 'NONE',  #116 ) ;
#156 = COLOUR_RGB ( '',1.000000000000000000, 1.000000000000000000, 1.000000000000000000 ) ;
#157 = DIRECTION ( 'NONE',  ( -0.0000000000000000000, 0.0000000000000000000, -1.000000000000000000 ) ) ;
#158 = APPLICATION_PROTOCOL_DEFINITION ( 'draft international standard', 'automotive_design', 1998, #55 ) ;
#159 = EDGE_LOOP ( 'NONE', ( #62, #186, #120, #170 ) ) ;
#160 = APPLICATION_CONTEXT ( 'automotive_design' ) ;
#161 = CIRCLE ( 'NONE', #147, 25.40000000000000600 ) ;
#162 = EDGE_CURVE ( 'NONE', #17, #34, #22, .T. ) ;
#163 = PRODUCT_DEFINITION_SHAPE ( 'NONE', 'NONE',  #2 ) ;
#164 = UNCERTAINTY_MEASURE_WITH_UNIT (LENGTH_MEASURE( 1.000000000000000100E-005 ), #129, 'distance_accuracy_value', 'NONE');
#165 = ORIENTED_EDGE ( 'NONE', *, *, #94, .F. ) ;
#166 = AXIS2_PLACEMENT_3D ( 'NONE', #131, #72, #184 ) ;
#167 = CARTESIAN_POINT ( 'NONE',  ( 235.0208200792423800, 130.4671098528243900, -25.40000000000000600 ) ) ;
#168 = CYLINDRICAL_SURFACE ( 'NONE', #154, 25.40000000000000600 ) ;
#169 = AXIS2_PLACEMENT_3D ( 'NONE', #25, #121, #26 ) ;
#170 = ORIENTED_EDGE ( 'NONE', *, *, #8, .F. ) ;
#171 = CARTESIAN_POINT ( 'NONE',  ( 235.0208200792423800, 130.4671098528243900, 0.0000000000000000000 ) ) ;
#172 = FACE_OUTER_BOUND ( 'NONE', #76, .T. ) ;
#173 = PRESENTATION_LAYER_ASSIGNMENT (  '', '', ( #176 ) ) ;
#174 = PRODUCT ( '100391', '100391', '', ( #30 ) ) ;
#175 = CLOSED_SHELL ( 'NONE', ( #39, #6, #81, #152, #24 ) ) ;
#176 = STYLED_ITEM ( 'NONE', ( #69 ), #145 ) ;
#177 = AXIS2_PLACEMENT_3D ( 'NONE', #37, #10, #99 ) ;
#178 = ORIENTED_EDGE ( 'NONE', *, *, #96, .F. ) ;
#179 = VERTEX_POINT ( 'NONE', #88 ) ;
#180 = CARTESIAN_POINT ( 'NONE',  ( 220.3307464569769000, 130.4671098528243900, 25.40000000000000600 ) ) ;
#181 = AXIS2_PLACEMENT_3D ( 'NONE', #90, #100, #40 ) ;
#182 = DIRECTION ( 'NONE',  ( 0.0000000000000000000, 0.0000000000000000000, 1.000000000000000000 ) ) ;
#183 = DIRECTION ( 'NONE',  ( -1.000000000000000000, -0.0000000000000000000, -0.0000000000000000000 ) ) ;
#184 = DIRECTION ( 'NONE',  ( 0.0000000000000000000, 1.000000000000000000, 1.224646799147353200E-016 ) ) ;
#185 = CARTESIAN_POINT ( 'NONE',  ( 236.4208200792423900, 130.4671098528244200, 0.0000000000000000000 ) ) ;
#186 = ORIENTED_EDGE ( 'NONE', *, *, #94, .T. ) ;
ENDSEC;
END-ISO-10303-21;
