ISO-10303-21;
HEADER;
FILE_DESCRIPTION (( 'STEP AP214' ),
    '1' );
FILE_NAME ('100364.STEP',
    '2019-06-04T02:19:14',
    ( '' ),
    ( '' ),
    'SwSTEP 2.0',
    'SolidWorks 2016',
    '' );
FILE_SCHEMA (( 'AUTOMOTIVE_DESIGN' ));
ENDSEC;

DATA;
#1 = EDGE_CURVE ( 'NONE', #91, #125, #178, .T. ) ;
#2 = EDGE_LOOP ( 'NONE', ( #68, #113, #155, #6, #144 ) ) ;
#3 = EDGE_LOOP ( 'NONE', ( #35, #101, #28, #109 ) ) ;
#4 = UNCERTAINTY_MEASURE_WITH_UNIT (LENGTH_MEASURE( 1.000000000000000100E-005 ), #69, 'distance_accuracy_value', 'NONE');
#5 = DIRECTION ( 'NONE',  ( -1.000000000000000000, -0.0000000000000000000, -0.0000000000000000000 ) ) ;
#6 = ORIENTED_EDGE ( 'NONE', *, *, #114, .T. ) ;
#7 =( NAMED_UNIT ( * ) SI_UNIT ( $, .STERADIAN. ) SOLID_ANGLE_UNIT ( ) );
#8 = APPLICATION_CONTEXT ( 'automotive_design' ) ;
#9 = ORIENTED_EDGE ( 'NONE', *, *, #1, .T. ) ;
#10 =( LENGTH_UNIT ( ) NAMED_UNIT ( * ) SI_UNIT ( .MILLI., .METRE. ) );
#11 = AXIS2_PLACEMENT_3D ( 'NONE', #166, #180, #81 ) ;
#12 = ORIENTED_EDGE ( 'NONE', *, *, #47, .F. ) ;
#13 = AXIS2_PLACEMENT_3D ( 'NONE', #169, #94, #29 ) ;
#14 = CIRCLE ( 'NONE', #70, 6.349999999999997900 ) ;
#15 = FACE_OUTER_BOUND ( 'NONE', #21, .T. ) ;
#16 = AXIS2_PLACEMENT_3D ( 'NONE', #164, #165, #147 ) ;
#17 = EDGE_CURVE ( 'NONE', #24, #176, #53, .T. ) ;
#18 = DIRECTION ( 'NONE',  ( -1.000000000000000000, -0.0000000000000000000, -0.0000000000000000000 ) ) ;
#19 = SURFACE_SIDE_STYLE ('',( #97 ) ) ;
#20 =( NAMED_UNIT ( * ) SI_UNIT ( $, .STERADIAN. ) SOLID_ANGLE_UNIT ( ) );
#21 = EDGE_LOOP ( 'NONE', ( #73, #76 ) ) ;
#22 = FILL_AREA_STYLE_COLOUR ( '', #127 ) ;
#23 = LINE ( 'NONE', #52, #177 ) ;
#24 = VERTEX_POINT ( 'NONE', #95 ) ;
#25 = PRESENTATION_STYLE_ASSIGNMENT (( #182 ) ) ;
#26 = VECTOR ( 'NONE', #5, 1000.000000000000000 ) ;
#27 = DIRECTION ( 'NONE',  ( -1.000000000000000000, -0.0000000000000000000, -0.0000000000000000000 ) ) ;
#28 = ORIENTED_EDGE ( 'NONE', *, *, #93, .F. ) ;
#29 = DIRECTION ( 'NONE',  ( 0.0000000000000000000, 0.0000000000000000000, 1.000000000000000000 ) ) ;
#30 = DIRECTION ( 'NONE',  ( 0.0000000000000000000, 0.0000000000000000000, 1.000000000000000000 ) ) ;
#31 = CARTESIAN_POINT ( 'NONE',  ( 354.4698350811613600, -36.86045120725685800, 6.349999999999997900 ) ) ;
#32 = DIRECTION ( 'NONE',  ( 0.0000000000000000000, 0.0000000000000000000, 1.000000000000000000 ) ) ;
#33 =( NAMED_UNIT ( * ) PLANE_ANGLE_UNIT ( ) SI_UNIT ( $, .RADIAN. ) );
#34 =( GEOMETRIC_REPRESENTATION_CONTEXT ( 3 ) GLOBAL_UNCERTAINTY_ASSIGNED_CONTEXT ( ( #74 ) ) GLOBAL_UNIT_ASSIGNED_CONTEXT ( ( #96, #135, #7 ) ) REPRESENTATION_CONTEXT ( 'NONE', 'WORKASPACE' ) );
#35 = ORIENTED_EDGE ( 'NONE', *, *, #1, .F. ) ;
#36 = PRODUCT_DEFINITION_CONTEXT ( 'detailed design', #152, 'design' ) ;
#37 = ADVANCED_BREP_SHAPE_REPRESENTATION ( '100364', ( #160, #145 ), #34 ) ;
#38 = SURFACE_STYLE_USAGE ( .BOTH. , #19 ) ;
#39 = ORIENTED_EDGE ( 'NONE', *, *, #114, .F. ) ;
#40 = ADVANCED_FACE ( 'NONE', ( #84 ), #75, .T. ) ;
#41 = MECHANICAL_DESIGN_GEOMETRIC_PRESENTATION_REPRESENTATION (  '', ( #55 ), #121 ) ;
#42 = ORIENTED_EDGE ( 'NONE', *, *, #57, .T. ) ;
#43 = AXIS2_PLACEMENT_3D ( 'NONE', #168, #174, #98 ) ;
#44 = PRODUCT_DEFINITION ( 'Î´Öª', '', #163, #36 ) ;
#45 = ORIENTED_EDGE ( 'NONE', *, *, #17, .F. ) ;
#46 = CARTESIAN_POINT ( 'NONE',  ( 354.4698350811613600, -36.86045120725685800, 0.0000000000000000000 ) ) ;
#47 = EDGE_CURVE ( 'NONE', #119, #175, #186, .T. ) ;
#48 = CARTESIAN_POINT ( 'NONE',  ( 350.1418065911672100, -36.86045120725685800, 6.349999999999997900 ) ) ;
#49 = DIRECTION ( 'NONE',  ( 0.0000000000000000000, 0.0000000000000000000, 1.000000000000000000 ) ) ;
#50 = DIRECTION ( 'NONE',  ( -1.000000000000000000, -0.0000000000000000000, -0.0000000000000000000 ) ) ;
#51 = DIRECTION ( 'NONE',  ( 0.0000000000000000000, 0.0000000000000000000, 1.000000000000000000 ) ) ;
#52 = CARTESIAN_POINT ( 'NONE',  ( 350.1418065911672100, -36.86045120725685800, -6.349999999999997900 ) ) ;
#53 = CIRCLE ( 'NONE', #103, 6.349999999999997900 ) ;
#54 = SHAPE_DEFINITION_REPRESENTATION ( #90, #37 ) ;
#55 = STYLED_ITEM ( 'NONE', ( #72 ), #37 ) ;
#56 = VERTEX_POINT ( 'NONE', #151 ) ;
#57 = EDGE_CURVE ( 'NONE', #175, #125, #14, .T. ) ;
#58 = ADVANCED_FACE ( 'NONE', ( #142 ), #104, .T. ) ;
#59 = SPHERICAL_SURFACE ( 'NONE', #158, 11.46065104166666500 ) ;
#60 = ORIENTED_EDGE ( 'NONE', *, *, #77, .T. ) ;
#61 = CARTESIAN_POINT ( 'NONE',  ( 354.4698350811613600, -43.21045120725684500, 0.0000000000000000000 ) ) ;
#62 = CARTESIAN_POINT ( 'NONE',  ( 354.4698350811613600, -36.86045120725685800, 0.0000000000000000000 ) ) ;
#63 = CIRCLE ( 'NONE', #143, 11.46065104166665800 ) ;
#64 = DIRECTION ( 'NONE',  ( 0.0000000000000000000, 0.0000000000000000000, 1.000000000000000000 ) ) ;
#65 = DIRECTION ( 'NONE',  ( -1.000000000000000000, -0.0000000000000000000, -0.0000000000000000000 ) ) ;
#66 = DIRECTION ( 'NONE',  ( -1.000000000000000000, -0.0000000000000000000, -0.0000000000000000000 ) ) ;
#67 = CARTESIAN_POINT ( 'NONE',  ( 350.1418065911672100, -36.86045120725685800, 0.0000000000000000000 ) ) ;
#68 = ORIENTED_EDGE ( 'NONE', *, *, #172, .F. ) ;
#69 =( LENGTH_UNIT ( ) NAMED_UNIT ( * ) SI_UNIT ( .MILLI., .METRE. ) );
#70 = AXIS2_PLACEMENT_3D ( 'NONE', #46, #150, #49 ) ;
#71 = SURFACE_STYLE_FILL_AREA ( #99 ) ;
#72 = PRESENTATION_STYLE_ASSIGNMENT (( #38 ) ) ;
#73 = ORIENTED_EDGE ( 'NONE', *, *, #17, .T. ) ;
#74 = UNCERTAINTY_MEASURE_WITH_UNIT (LENGTH_MEASURE( 1.000000000000000100E-005 ), #96, 'distance_accuracy_value', 'NONE');
#75 = SPHERICAL_SURFACE ( 'NONE', #133, 11.46065104166666500 ) ;
#76 = ORIENTED_EDGE ( 'NONE', *, *, #139, .T. ) ;
#77 = EDGE_CURVE ( 'NONE', #125, #56, #79, .T. ) ;
#78 = PRODUCT_RELATED_PRODUCT_CATEGORY ( 'part', '', ( #137 ) ) ;
#79 = CIRCLE ( 'NONE', #13, 6.349999999999997900 ) ;
#80 = AXIS2_PLACEMENT_3D ( 'NONE', #62, #65, #64 ) ;
#81 = DIRECTION ( 'NONE',  ( 0.0000000000000000000, -1.000000000000000000, -1.224646799147353200E-016 ) ) ;
#82 = CARTESIAN_POINT ( 'NONE',  ( 356.3898350811613200, -36.86045120725685100, 0.0000000000000000000 ) ) ;
#83 = SURFACE_SIDE_STYLE ('',( #71 ) ) ;
#84 = FACE_OUTER_BOUND ( 'NONE', #3, .T. ) ;
#85 = APPLICATION_PROTOCOL_DEFINITION ( 'draft international standard', 'automotive_design', 1998, #8 ) ;
#86 = CARTESIAN_POINT ( 'NONE',  ( 352.4698350811613600, -36.86045120725685800, 0.0000000000000000000 ) ) ;
#87 = FACE_OUTER_BOUND ( 'NONE', #89, .T. ) ;
#88 = PRESENTATION_LAYER_ASSIGNMENT (  '', '', ( #55 ) ) ;
#89 = EDGE_LOOP ( 'NONE', ( #183, #9, #162, #12 ) ) ;
#90 = PRODUCT_DEFINITION_SHAPE ( 'NONE', 'NONE',  #44 ) ;
#91 = VERTEX_POINT ( 'NONE', #82 ) ;
#92 = CARTESIAN_POINT ( 'NONE',  ( 344.9291840394946600, -36.86045120725685100, 0.0000000000000000000 ) ) ;
#93 = EDGE_CURVE ( 'NONE', #56, #119, #140, .T. ) ;
#94 = DIRECTION ( 'NONE',  ( -1.000000000000000000, -0.0000000000000000000, -0.0000000000000000000 ) ) ;
#95 = CARTESIAN_POINT ( 'NONE',  ( 352.4698350811613600, -36.86045120725685800, 6.349999999999997900 ) ) ;
#96 =( LENGTH_UNIT ( ) NAMED_UNIT ( * ) SI_UNIT ( .MILLI., .METRE. ) );
#97 = SURFACE_STYLE_FILL_AREA ( #120 ) ;
#98 = DIRECTION ( 'NONE',  ( 0.0000000000000000000, 0.0000000000000000000, -1.000000000000000000 ) ) ;
#99 = FILL_AREA_STYLE ('',( #132 ) ) ;
#100 = PLANE ( 'NONE',  #43 ) ;
#101 = ORIENTED_EDGE ( 'NONE', *, *, #184, .T. ) ;
#102 = AXIS2_PLACEMENT_3D ( 'NONE', #67, #66, #51 ) ;
#103 = AXIS2_PLACEMENT_3D ( 'NONE', #105, #18, #30 ) ;
#104 = CYLINDRICAL_SURFACE ( 'NONE', #16, 6.349999999999997900 ) ;
#105 = CARTESIAN_POINT ( 'NONE',  ( 352.4698350811613600, -36.86045120725685800, 0.0000000000000000000 ) ) ;
#106 = CARTESIAN_POINT ( 'NONE',  ( 352.4698350811613600, -36.86045120725685800, -6.349999999999997900 ) ) ;
#107 =( NAMED_UNIT ( * ) PLANE_ANGLE_UNIT ( ) SI_UNIT ( $, .RADIAN. ) );
#108 = CARTESIAN_POINT ( 'NONE',  ( 0.0000000000000000000, 0.0000000000000000000, 0.0000000000000000000 ) ) ;
#109 = ORIENTED_EDGE ( 'NONE', *, *, #77, .F. ) ;
#110 = MECHANICAL_DESIGN_GEOMETRIC_PRESENTATION_REPRESENTATION (  '', ( #167 ), #129 ) ;
#111 = CYLINDRICAL_SURFACE ( 'NONE', #102, 6.349999999999997900 ) ;
#112 = CLOSED_SHELL ( 'NONE', ( #141, #161, #40, #58, #185 ) ) ;
#113 = ORIENTED_EDGE ( 'NONE', *, *, #93, .T. ) ;
#114 = EDGE_CURVE ( 'NONE', #175, #24, #130, .T. ) ;
#115 = AXIS2_PLACEMENT_3D ( 'NONE', #117, #27, #131 ) ;
#116 = EDGE_LOOP ( 'NONE', ( #60, #128, #45, #39, #42 ) ) ;
#117 = CARTESIAN_POINT ( 'NONE',  ( 354.4698350811613600, -36.86045120725685800, 0.0000000000000000000 ) ) ;
#118 = DIRECTION ( 'NONE',  ( 0.0000000000000000000, -1.000000000000000000, 0.0000000000000000000 ) ) ;
#119 = VERTEX_POINT ( 'NONE', #61 ) ;
#120 = FILL_AREA_STYLE ('',( #22 ) ) ;
#121 =( GEOMETRIC_REPRESENTATION_CONTEXT ( 3 ) GLOBAL_UNCERTAINTY_ASSIGNED_CONTEXT ( ( #4 ) ) GLOBAL_UNIT_ASSIGNED_CONTEXT ( ( #69, #33, #138 ) ) REPRESENTATION_CONTEXT ( 'NONE', 'WORKASPACE' ) );
#122 = APPLICATION_PROTOCOL_DEFINITION ( 'draft international standard', 'automotive_design', 1998, #152 ) ;
#123 = UNCERTAINTY_MEASURE_WITH_UNIT (LENGTH_MEASURE( 1.000000000000000100E-005 ), #10, 'distance_accuracy_value', 'NONE');
#124 = CARTESIAN_POINT ( 'NONE',  ( 344.9291840394946600, -36.86045120725685100, 0.0000000000000000000 ) ) ;
#125 = VERTEX_POINT ( 'NONE', #179 ) ;
#126 = PRESENTATION_LAYER_ASSIGNMENT (  '', '', ( #167 ) ) ;
#127 = COLOUR_RGB ( '',1.000000000000000000, 1.000000000000000000, 1.000000000000000000 ) ;
#128 = ORIENTED_EDGE ( 'NONE', *, *, #172, .T. ) ;
#129 =( GEOMETRIC_REPRESENTATION_CONTEXT ( 3 ) GLOBAL_UNCERTAINTY_ASSIGNED_CONTEXT ( ( #123 ) ) GLOBAL_UNIT_ASSIGNED_CONTEXT ( ( #10, #107, #20 ) ) REPRESENTATION_CONTEXT ( 'NONE', 'WORKASPACE' ) );
#130 = LINE ( 'NONE', #48, #26 ) ;
#131 = DIRECTION ( 'NONE',  ( 0.0000000000000000000, 0.0000000000000000000, 1.000000000000000000 ) ) ;
#132 = FILL_AREA_STYLE_COLOUR ( '', #159 ) ;
#133 = AXIS2_PLACEMENT_3D ( 'NONE', #92, #146, #118 ) ;
#134 = DIRECTION ( 'NONE',  ( 0.0000000000000000000, 0.0000000000000000000, 1.000000000000000000 ) ) ;
#135 =( NAMED_UNIT ( * ) PLANE_ANGLE_UNIT ( ) SI_UNIT ( $, .RADIAN. ) );
#136 = FACE_OUTER_BOUND ( 'NONE', #116, .T. ) ;
#137 = PRODUCT ( '100364', '100364', '', ( #157 ) ) ;
#138 =( NAMED_UNIT ( * ) SI_UNIT ( $, .STERADIAN. ) SOLID_ANGLE_UNIT ( ) );
#139 = EDGE_CURVE ( 'NONE', #176, #24, #149, .T. ) ;
#140 = CIRCLE ( 'NONE', #80, 6.349999999999997900 ) ;
#141 = ADVANCED_FACE ( 'NONE', ( #136 ), #111, .T. ) ;
#142 = FACE_OUTER_BOUND ( 'NONE', #2, .T. ) ;
#143 = AXIS2_PLACEMENT_3D ( 'NONE', #124, #154, #181 ) ;
#144 = ORIENTED_EDGE ( 'NONE', *, *, #139, .F. ) ;
#145 = AXIS2_PLACEMENT_3D ( 'NONE', #108, #134, #170 ) ;
#146 = DIRECTION ( 'NONE',  ( 0.0000000000000000000, 0.0000000000000000000, 1.000000000000000000 ) ) ;
#147 = DIRECTION ( 'NONE',  ( 0.0000000000000000000, 0.0000000000000000000, 1.000000000000000000 ) ) ;
#148 = AXIS2_PLACEMENT_3D ( 'NONE', #86, #153, #32 ) ;
#149 = CIRCLE ( 'NONE', #148, 6.349999999999997900 ) ;
#150 = DIRECTION ( 'NONE',  ( -1.000000000000000000, -0.0000000000000000000, -0.0000000000000000000 ) ) ;
#151 = CARTESIAN_POINT ( 'NONE',  ( 354.4698350811613600, -36.86045120725685800, -6.349999999999997900 ) ) ;
#152 = APPLICATION_CONTEXT ( 'automotive_design' ) ;
#153 = DIRECTION ( 'NONE',  ( -1.000000000000000000, -0.0000000000000000000, -0.0000000000000000000 ) ) ;
#154 = DIRECTION ( 'NONE',  ( 0.0000000000000000000, 0.0000000000000000000, -1.000000000000000000 ) ) ;
#155 = ORIENTED_EDGE ( 'NONE', *, *, #47, .T. ) ;
#156 = DIRECTION ( 'NONE',  ( 0.0000000000000000000, -1.000000000000000000, 0.0000000000000000000 ) ) ;
#157 = PRODUCT_CONTEXT ( 'NONE', #8, 'mechanical' ) ;
#158 = AXIS2_PLACEMENT_3D ( 'NONE', #173, #171, #156 ) ;
#159 = COLOUR_RGB ( '',1.000000000000000000, 1.000000000000000000, 1.000000000000000000 ) ;
#160 = MANIFOLD_SOLID_BREP ( 'Ðý×ª1', #112 ) ;
#161 = ADVANCED_FACE ( 'NONE', ( #87 ), #59, .T. ) ;
#162 = ORIENTED_EDGE ( 'NONE', *, *, #57, .F. ) ;
#163 = PRODUCT_DEFINITION_FORMATION_WITH_SPECIFIED_SOURCE ( 'ÈÎºÎ', '', #137, .NOT_KNOWN. ) ;
#164 = CARTESIAN_POINT ( 'NONE',  ( 350.1418065911672100, -36.86045120725685800, 0.0000000000000000000 ) ) ;
#165 = DIRECTION ( 'NONE',  ( -1.000000000000000000, -0.0000000000000000000, -0.0000000000000000000 ) ) ;
#166 = CARTESIAN_POINT ( 'NONE',  ( 344.9291840394946600, -36.86045120725685100, 0.0000000000000000000 ) ) ;
#167 = STYLED_ITEM ( 'NONE', ( #25 ), #160 ) ;
#168 = CARTESIAN_POINT ( 'NONE',  ( 352.4698350811613600, -36.86045120725685800, 0.0000000000000000000 ) ) ;
#169 = CARTESIAN_POINT ( 'NONE',  ( 354.4698350811613600, -36.86045120725685800, 0.0000000000000000000 ) ) ;
#170 = DIRECTION ( 'NONE',  ( 1.000000000000000000, 0.0000000000000000000, 0.0000000000000000000 ) ) ;
#171 = DIRECTION ( 'NONE',  ( 0.0000000000000000000, 0.0000000000000000000, 1.000000000000000000 ) ) ;
#172 = EDGE_CURVE ( 'NONE', #56, #176, #23, .T. ) ;
#173 = CARTESIAN_POINT ( 'NONE',  ( 344.9291840394946600, -36.86045120725685100, 0.0000000000000000000 ) ) ;
#174 = DIRECTION ( 'NONE',  ( 1.000000000000000000, 0.0000000000000000000, 0.0000000000000000000 ) ) ;
#175 = VERTEX_POINT ( 'NONE', #31 ) ;
#176 = VERTEX_POINT ( 'NONE', #106 ) ;
#177 = VECTOR ( 'NONE', #50, 1000.000000000000000 ) ;
#178 = CIRCLE ( 'NONE', #11, 11.46065104166666500 ) ;
#179 = CARTESIAN_POINT ( 'NONE',  ( 354.4698350811613600, -30.51045120725686700, 7.776507174585673400E-016 ) ) ;
#180 = DIRECTION ( 'NONE',  ( 0.0000000000000000000, -1.224646799147353200E-016, 1.000000000000000000 ) ) ;
#181 = DIRECTION ( 'NONE',  ( -1.000000000000000000, 0.0000000000000000000, 0.0000000000000000000 ) ) ;
#182 = SURFACE_STYLE_USAGE ( .BOTH. , #83 ) ;
#183 = ORIENTED_EDGE ( 'NONE', *, *, #184, .F. ) ;
#184 = EDGE_CURVE ( 'NONE', #91, #119, #63, .T. ) ;
#185 = ADVANCED_FACE ( 'NONE', ( #15 ), #100, .F. ) ;
#186 = CIRCLE ( 'NONE', #115, 6.349999999999997900 ) ;
ENDSEC;
END-ISO-10303-21;
