ISO-10303-21;
HEADER;
FILE_DESCRIPTION (( 'STEP AP214' ),
    '1' );
FILE_NAME ('100378.STEP',
    '2019-06-04T07:12:21',
    ( '' ),
    ( '' ),
    'SwSTEP 2.0',
    'SolidWorks 2016',
    '' );
FILE_SCHEMA (( 'AUTOMOTIVE_DESIGN' ));
ENDSEC;

DATA;
#1 = DIRECTION ( 'NONE',  ( 0.0000000000000000000, 0.0000000000000000000, 1.000000000000000000 ) ) ;
#2 = DIRECTION ( 'NONE',  ( -1.000000000000000000, -0.0000000000000000000, -0.0000000000000000000 ) ) ;
#3 = CARTESIAN_POINT ( 'NONE',  ( 0.0000000000000000000, 0.0000000000000000000, 0.0000000000000000000 ) ) ;
#4 = ORIENTED_EDGE ( 'NONE', *, *, #11, .F. ) ;
#5 = VERTEX_POINT ( 'NONE', #157 ) ;
#6 = AXIS2_PLACEMENT_3D ( 'NONE', #35, #121, #130 ) ;
#7 = CARTESIAN_POINT ( 'NONE',  ( 562.4435226295529400, 4.922315797377592600, 0.0000000000000000000 ) ) ;
#8 = ADVANCED_FACE ( 'NONE', ( #170 ), #56, .T. ) ;
#9 = ORIENTED_EDGE ( 'NONE', *, *, #76, .T. ) ;
#10 = EDGE_LOOP ( 'NONE', ( #9, #33, #99, #82, #72 ) ) ;
#11 = EDGE_CURVE ( 'NONE', #156, #118, #125, .T. ) ;
#12 = EDGE_LOOP ( 'NONE', ( #134, #75, #43, #147, #126 ) ) ;
#13 = VERTEX_POINT ( 'NONE', #87 ) ;
#14 = DIRECTION ( 'NONE',  ( 0.0000000000000000000, 0.0000000000000000000, 1.000000000000000000 ) ) ;
#15 = AXIS2_PLACEMENT_3D ( 'NONE', #88, #163, #89 ) ;
#16 = DIRECTION ( 'NONE',  ( 0.0000000000000000000, 0.0000000000000000000, 1.000000000000000000 ) ) ;
#17 = ORIENTED_EDGE ( 'NONE', *, *, #27, .T. ) ;
#18 = CARTESIAN_POINT ( 'NONE',  ( 554.7388490820981100, 4.922315797377594400, -12.70000000000000500 ) ) ;
#19 = CARTESIAN_POINT ( 'NONE',  ( 562.4435226295529400, -7.777684202622358700, 0.0000000000000000000 ) ) ;
#20 = PRODUCT_DEFINITION ( 'Î´Öª', '', #149, #55 ) ;
#21 = FILL_AREA_STYLE_COLOUR ( '', #102 ) ;
#22 = VERTEX_POINT ( 'NONE', #112 ) ;
#23 = PRESENTATION_LAYER_ASSIGNMENT (  '', '', ( #26 ) ) ;
#24 = FILL_AREA_STYLE ('',( #178 ) ) ;
#25 = SURFACE_STYLE_FILL_AREA ( #93 ) ;
#26 = STYLED_ITEM ( 'NONE', ( #36 ), #165 ) ;
#27 = EDGE_CURVE ( 'NONE', #13, #101, #155, .T. ) ;
#28 = UNCERTAINTY_MEASURE_WITH_UNIT (LENGTH_MEASURE( 1.000000000000000100E-005 ), #106, 'distance_accuracy_value', 'NONE');
#29 = CARTESIAN_POINT ( 'NONE',  ( 554.7388490820981100, 4.922315797377592600, 0.0000000000000000000 ) ) ;
#30 = CARTESIAN_POINT ( 'NONE',  ( 562.4435226295529400, 4.922315797377594400, -12.70000000000000500 ) ) ;
#31 =( GEOMETRIC_REPRESENTATION_CONTEXT ( 3 ) GLOBAL_UNCERTAINTY_ASSIGNED_CONTEXT ( ( #50 ) ) GLOBAL_UNIT_ASSIGNED_CONTEXT ( ( #181, #119, #143 ) ) REPRESENTATION_CONTEXT ( 'NONE', 'WORKASPACE' ) );
#32 =( NAMED_UNIT ( * ) SI_UNIT ( $, .STERADIAN. ) SOLID_ANGLE_UNIT ( ) );
#33 = ORIENTED_EDGE ( 'NONE', *, *, #105, .T. ) ;
#34 = EDGE_CURVE ( 'NONE', #91, #156, #151, .T. ) ;
#35 = CARTESIAN_POINT ( 'NONE',  ( 560.4435226295529400, 4.922315797377592600, 0.0000000000000000000 ) ) ;
#36 = PRESENTATION_STYLE_ASSIGNMENT (( #129 ) ) ;
#37 = PRESENTATION_STYLE_ASSIGNMENT (( #98 ) ) ;
#38 = CIRCLE ( 'NONE', #152, 12.70000000000000500 ) ;
#39 = SHAPE_DEFINITION_REPRESENTATION ( #131, #81 ) ;
#40 = ADVANCED_FACE ( 'NONE', ( #42 ), #90, .T. ) ;
#41 = AXIS2_PLACEMENT_3D ( 'NONE', #167, #61, #160 ) ;
#42 = FACE_OUTER_BOUND ( 'NONE', #12, .T. ) ;
#43 = ORIENTED_EDGE ( 'NONE', *, *, #11, .T. ) ;
#44 = DIRECTION ( 'NONE',  ( 0.0000000000000000000, -1.000000000000000000, 0.0000000000000000000 ) ) ;
#45 = AXIS2_PLACEMENT_3D ( 'NONE', #144, #133, #73 ) ;
#46 =( LENGTH_UNIT ( ) NAMED_UNIT ( * ) SI_UNIT ( .MILLI., .METRE. ) );
#47 =( NAMED_UNIT ( * ) PLANE_ANGLE_UNIT ( ) SI_UNIT ( $, .RADIAN. ) );
#48 = ORIENTED_EDGE ( 'NONE', *, *, #34, .F. ) ;
#49 = EDGE_CURVE ( 'NONE', #118, #101, #79, .T. ) ;
#50 = UNCERTAINTY_MEASURE_WITH_UNIT (LENGTH_MEASURE( 1.000000000000000100E-005 ), #181, 'distance_accuracy_value', 'NONE');
#51 = DIRECTION ( 'NONE',  ( -1.000000000000000000, -0.0000000000000000000, -0.0000000000000000000 ) ) ;
#52 = APPLICATION_PROTOCOL_DEFINITION ( 'draft international standard', 'automotive_design', 1998, #138 ) ;
#53 = STYLED_ITEM ( 'NONE', ( #37 ), #81 ) ;
#54 = PRODUCT_CONTEXT ( 'NONE', #138, 'mechanical' ) ;
#55 = PRODUCT_DEFINITION_CONTEXT ( 'detailed design', #97, 'design' ) ;
#56 = SPHERICAL_SURFACE ( 'NONE', #113, 79.57372549019645200 ) ;
#57 = ADVANCED_FACE ( 'NONE', ( #139 ), #66, .T. ) ;
#58 = CIRCLE ( 'NONE', #6, 12.70000000000000500 ) ;
#59 = DIRECTION ( 'NONE',  ( -1.000000000000000000, -0.0000000000000000000, -0.0000000000000000000 ) ) ;
#60 = AXIS2_PLACEMENT_3D ( 'NONE', #100, #175, #114 ) ;
#61 = DIRECTION ( 'NONE',  ( 0.0000000000000000000, 0.0000000000000000000, -1.000000000000000000 ) ) ;
#62 = CARTESIAN_POINT ( 'NONE',  ( 562.4435226295529400, 4.922315797377592600, 0.0000000000000000000 ) ) ;
#63 = PRESENTATION_LAYER_ASSIGNMENT (  '', '', ( #53 ) ) ;
#64 = DIRECTION ( 'NONE',  ( 0.0000000000000000000, 0.0000000000000000000, 1.000000000000000000 ) ) ;
#65 = CARTESIAN_POINT ( 'NONE',  ( 562.4435226295529400, 4.922315797377592600, 12.70000000000000500 ) ) ;
#66 = SPHERICAL_SURFACE ( 'NONE', #67, 79.57372549019645200 ) ;
#67 = AXIS2_PLACEMENT_3D ( 'NONE', #116, #92, #135 ) ;
#68 = ORIENTED_EDGE ( 'NONE', *, *, #168, .T. ) ;
#69 = ADVANCED_FACE ( 'NONE', ( #104 ), #148, .F. ) ;
#70 = MECHANICAL_DESIGN_GEOMETRIC_PRESENTATION_REPRESENTATION (  '', ( #26 ), #31 ) ;
#71 = DIRECTION ( 'NONE',  ( 0.0000000000000000000, 0.0000000000000000000, 1.000000000000000000 ) ) ;
#72 = ORIENTED_EDGE ( 'NONE', *, *, #115, .T. ) ;
#73 = DIRECTION ( 'NONE',  ( 0.0000000000000000000, -1.000000000000000000, -1.224646799147353200E-016 ) ) ;
#74 = CARTESIAN_POINT ( 'NONE',  ( 560.4435226295529400, 4.922315797377592600, 0.0000000000000000000 ) ) ;
#75 = ORIENTED_EDGE ( 'NONE', *, *, #34, .T. ) ;
#76 = EDGE_CURVE ( 'NONE', #22, #91, #38, .T. ) ;
#77 = DIRECTION ( 'NONE',  ( 0.0000000000000000000, 0.0000000000000000000, 1.000000000000000000 ) ) ;
#78 =( GEOMETRIC_REPRESENTATION_CONTEXT ( 3 ) GLOBAL_UNCERTAINTY_ASSIGNED_CONTEXT ( ( #128 ) ) GLOBAL_UNIT_ASSIGNED_CONTEXT ( ( #46, #47, #32 ) ) REPRESENTATION_CONTEXT ( 'NONE', 'WORKASPACE' ) );
#79 = LINE ( 'NONE', #179, #142 ) ;
#80 = ORIENTED_EDGE ( 'NONE', *, *, #153, .F. ) ;
#81 = ADVANCED_BREP_SHAPE_REPRESENTATION ( '100378', ( #165, #145 ), #78 ) ;
#82 = ORIENTED_EDGE ( 'NONE', *, *, #49, .F. ) ;
#83 = ORIENTED_EDGE ( 'NONE', *, *, #168, .F. ) ;
#84 = SURFACE_STYLE_FILL_AREA ( #24 ) ;
#85 = DIRECTION ( 'NONE',  ( -1.000000000000000000, -0.0000000000000000000, -0.0000000000000000000 ) ) ;
#86 = AXIS2_PLACEMENT_3D ( 'NONE', #74, #146, #95 ) ;
#87 = CARTESIAN_POINT ( 'NONE',  ( 560.4435226295529400, 4.922315797377594400, -12.70000000000000500 ) ) ;
#88 = CARTESIAN_POINT ( 'NONE',  ( 554.7388490820981100, 4.922315797377592600, 0.0000000000000000000 ) ) ;
#89 = DIRECTION ( 'NONE',  ( 0.0000000000000000000, 0.0000000000000000000, 1.000000000000000000 ) ) ;
#90 = CYLINDRICAL_SURFACE ( 'NONE', #137, 12.70000000000000500 ) ;
#91 = VERTEX_POINT ( 'NONE', #30 ) ;
#92 = DIRECTION ( 'NONE',  ( 0.0000000000000000000, 0.0000000000000000000, 1.000000000000000000 ) ) ;
#93 = FILL_AREA_STYLE ('',( #21 ) ) ;
#94 = CIRCLE ( 'NONE', #166, 12.70000000000000500 ) ;
#95 = DIRECTION ( 'NONE',  ( 0.0000000000000000000, 0.0000000000000000000, -1.000000000000000000 ) ) ;
#96 = ORIENTED_EDGE ( 'NONE', *, *, #127, .T. ) ;
#97 = APPLICATION_CONTEXT ( 'automotive_design' ) ;
#98 = SURFACE_STYLE_USAGE ( .BOTH. , #136 ) ;
#99 = ORIENTED_EDGE ( 'NONE', *, *, #127, .F. ) ;
#100 = CARTESIAN_POINT ( 'NONE',  ( 562.4435226295529400, 4.922315797377592600, 0.0000000000000000000 ) ) ;
#101 = VERTEX_POINT ( 'NONE', #169 ) ;
#102 = COLOUR_RGB ( '',1.000000000000000000, 1.000000000000000000, 1.000000000000000000 ) ;
#103 = DIRECTION ( 'NONE',  ( -1.000000000000000000, -0.0000000000000000000, -0.0000000000000000000 ) ) ;
#104 = FACE_OUTER_BOUND ( 'NONE', #177, .T. ) ;
#105 = EDGE_CURVE ( 'NONE', #91, #13, #174, .T. ) ;
#106 =( LENGTH_UNIT ( ) NAMED_UNIT ( * ) SI_UNIT ( .MILLI., .METRE. ) );
#107 =( GEOMETRIC_REPRESENTATION_CONTEXT ( 3 ) GLOBAL_UNCERTAINTY_ASSIGNED_CONTEXT ( ( #28 ) ) GLOBAL_UNIT_ASSIGNED_CONTEXT ( ( #106, #172, #150 ) ) REPRESENTATION_CONTEXT ( 'NONE', 'WORKASPACE' ) );
#108 = ORIENTED_EDGE ( 'NONE', *, *, #115, .F. ) ;
#109 = VECTOR ( 'NONE', #51, 1000.000000000000000 ) ;
#110 = ADVANCED_FACE ( 'NONE', ( #180 ), #182, .T. ) ;
#111 = ORIENTED_EDGE ( 'NONE', *, *, #76, .F. ) ;
#112 = CARTESIAN_POINT ( 'NONE',  ( 562.4435226295529400, 17.62231579737763500, 1.555301434917132500E-015 ) ) ;
#113 = AXIS2_PLACEMENT_3D ( 'NONE', #158, #71, #44 ) ;
#114 = DIRECTION ( 'NONE',  ( 0.0000000000000000000, 0.0000000000000000000, 1.000000000000000000 ) ) ;
#115 = EDGE_CURVE ( 'NONE', #118, #22, #94, .T. ) ;
#116 = CARTESIAN_POINT ( 'NONE',  ( 483.8897971393565200, 4.922315797377681400, 0.0000000000000000000 ) ) ;
#117 = PRODUCT_RELATED_PRODUCT_CATEGORY ( 'part', '', ( #161 ) ) ;
#118 = VERTEX_POINT ( 'NONE', #65 ) ;
#119 =( NAMED_UNIT ( * ) PLANE_ANGLE_UNIT ( ) SI_UNIT ( $, .RADIAN. ) );
#120 = SURFACE_SIDE_STYLE ('',( #25 ) ) ;
#121 = DIRECTION ( 'NONE',  ( -1.000000000000000000, -0.0000000000000000000, -0.0000000000000000000 ) ) ;
#122 = EDGE_LOOP ( 'NONE', ( #83, #183, #108, #4 ) ) ;
#123 = CLOSED_SHELL ( 'NONE', ( #110, #57, #8, #40, #69 ) ) ;
#124 = DIRECTION ( 'NONE',  ( 1.000000000000000000, 0.0000000000000000000, 0.0000000000000000000 ) ) ;
#125 = CIRCLE ( 'NONE', #60, 12.70000000000000500 ) ;
#126 = ORIENTED_EDGE ( 'NONE', *, *, #27, .F. ) ;
#127 = EDGE_CURVE ( 'NONE', #101, #13, #58, .T. ) ;
#128 = UNCERTAINTY_MEASURE_WITH_UNIT (LENGTH_MEASURE( 1.000000000000000100E-005 ), #46, 'distance_accuracy_value', 'NONE');
#129 = SURFACE_STYLE_USAGE ( .BOTH. , #120 ) ;
#130 = DIRECTION ( 'NONE',  ( 0.0000000000000000000, 0.0000000000000000000, 1.000000000000000000 ) ) ;
#131 = PRODUCT_DEFINITION_SHAPE ( 'NONE', 'NONE',  #20 ) ;
#132 = AXIS2_PLACEMENT_3D ( 'NONE', #141, #59, #16 ) ;
#133 = DIRECTION ( 'NONE',  ( 0.0000000000000000000, -1.224646799147353200E-016, 1.000000000000000000 ) ) ;
#134 = ORIENTED_EDGE ( 'NONE', *, *, #105, .F. ) ;
#135 = DIRECTION ( 'NONE',  ( 0.0000000000000000000, -1.000000000000000000, 0.0000000000000000000 ) ) ;
#136 = SURFACE_SIDE_STYLE ('',( #84 ) ) ;
#137 = AXIS2_PLACEMENT_3D ( 'NONE', #29, #159, #14 ) ;
#138 = APPLICATION_CONTEXT ( 'automotive_design' ) ;
#139 = FACE_OUTER_BOUND ( 'NONE', #122, .T. ) ;
#140 = CIRCLE ( 'NONE', #45, 79.57372549019645200 ) ;
#141 = CARTESIAN_POINT ( 'NONE',  ( 560.4435226295529400, 4.922315797377592600, 0.0000000000000000000 ) ) ;
#142 = VECTOR ( 'NONE', #2, 1000.000000000000000 ) ;
#143 =( NAMED_UNIT ( * ) SI_UNIT ( $, .STERADIAN. ) SOLID_ANGLE_UNIT ( ) );
#144 = CARTESIAN_POINT ( 'NONE',  ( 483.8897971393565200, 4.922315797377681400, 0.0000000000000000000 ) ) ;
#145 = AXIS2_PLACEMENT_3D ( 'NONE', #3, #185, #124 ) ;
#146 = DIRECTION ( 'NONE',  ( 1.000000000000000000, 0.0000000000000000000, 0.0000000000000000000 ) ) ;
#147 = ORIENTED_EDGE ( 'NONE', *, *, #49, .T. ) ;
#148 = PLANE ( 'NONE',  #86 ) ;
#149 = PRODUCT_DEFINITION_FORMATION_WITH_SPECIFIED_SOURCE ( 'ÈÎºÎ', '', #161, .NOT_KNOWN. ) ;
#150 =( NAMED_UNIT ( * ) SI_UNIT ( $, .STERADIAN. ) SOLID_ANGLE_UNIT ( ) );
#151 = CIRCLE ( 'NONE', #186, 12.70000000000000500 ) ;
#152 = AXIS2_PLACEMENT_3D ( 'NONE', #62, #164, #64 ) ;
#153 = EDGE_CURVE ( 'NONE', #5, #22, #140, .T. ) ;
#154 = CIRCLE ( 'NONE', #41, 79.57372549019648000 ) ;
#155 = CIRCLE ( 'NONE', #132, 12.70000000000000500 ) ;
#156 = VERTEX_POINT ( 'NONE', #19 ) ;
#157 = CARTESIAN_POINT ( 'NONE',  ( 563.4635226295530400, 4.922315797377676100, 0.0000000000000000000 ) ) ;
#158 = CARTESIAN_POINT ( 'NONE',  ( 483.8897971393565200, 4.922315797377681400, 0.0000000000000000000 ) ) ;
#159 = DIRECTION ( 'NONE',  ( -1.000000000000000000, -0.0000000000000000000, -0.0000000000000000000 ) ) ;
#160 = DIRECTION ( 'NONE',  ( -1.000000000000000000, 0.0000000000000000000, 0.0000000000000000000 ) ) ;
#161 = PRODUCT ( '100378', '100378', '', ( #54 ) ) ;
#162 = EDGE_LOOP ( 'NONE', ( #80, #68, #48, #111 ) ) ;
#163 = DIRECTION ( 'NONE',  ( -1.000000000000000000, -0.0000000000000000000, -0.0000000000000000000 ) ) ;
#164 = DIRECTION ( 'NONE',  ( -1.000000000000000000, -0.0000000000000000000, -0.0000000000000000000 ) ) ;
#165 = MANIFOLD_SOLID_BREP ( 'Ðý×ª1', #123 ) ;
#166 = AXIS2_PLACEMENT_3D ( 'NONE', #7, #103, #77 ) ;
#167 = CARTESIAN_POINT ( 'NONE',  ( 483.8897971393565200, 4.922315797377681400, 0.0000000000000000000 ) ) ;
#168 = EDGE_CURVE ( 'NONE', #5, #156, #154, .T. ) ;
#169 = CARTESIAN_POINT ( 'NONE',  ( 560.4435226295529400, 4.922315797377592600, 12.70000000000000500 ) ) ;
#170 = FACE_OUTER_BOUND ( 'NONE', #162, .T. ) ;
#171 = COLOUR_RGB ( '',1.000000000000000000, 1.000000000000000000, 1.000000000000000000 ) ;
#172 =( NAMED_UNIT ( * ) PLANE_ANGLE_UNIT ( ) SI_UNIT ( $, .RADIAN. ) );
#173 = MECHANICAL_DESIGN_GEOMETRIC_PRESENTATION_REPRESENTATION (  '', ( #53 ), #107 ) ;
#174 = LINE ( 'NONE', #18, #109 ) ;
#175 = DIRECTION ( 'NONE',  ( -1.000000000000000000, -0.0000000000000000000, -0.0000000000000000000 ) ) ;
#176 = CARTESIAN_POINT ( 'NONE',  ( 562.4435226295529400, 4.922315797377592600, 0.0000000000000000000 ) ) ;
#177 = EDGE_LOOP ( 'NONE', ( #96, #17 ) ) ;
#178 = FILL_AREA_STYLE_COLOUR ( '', #171 ) ;
#179 = CARTESIAN_POINT ( 'NONE',  ( 554.7388490820981100, 4.922315797377592600, 12.70000000000000500 ) ) ;
#180 = FACE_OUTER_BOUND ( 'NONE', #10, .T. ) ;
#181 =( LENGTH_UNIT ( ) NAMED_UNIT ( * ) SI_UNIT ( .MILLI., .METRE. ) );
#182 = CYLINDRICAL_SURFACE ( 'NONE', #15, 12.70000000000000500 ) ;
#183 = ORIENTED_EDGE ( 'NONE', *, *, #153, .T. ) ;
#184 = APPLICATION_PROTOCOL_DEFINITION ( 'draft international standard', 'automotive_design', 1998, #97 ) ;
#185 = DIRECTION ( 'NONE',  ( 0.0000000000000000000, 0.0000000000000000000, 1.000000000000000000 ) ) ;
#186 = AXIS2_PLACEMENT_3D ( 'NONE', #176, #85, #1 ) ;
ENDSEC;
END-ISO-10303-21;
