ISO-10303-21;
HEADER;
FILE_DESCRIPTION (( 'STEP AP214' ),
    '1' );
FILE_NAME ('100472.STEP',
    '2019-06-11T05:37:44',
    ( '' ),
    ( '' ),
    'SwSTEP 2.0',
    'SolidWorks 2016',
    '' );
FILE_SCHEMA (( 'AUTOMOTIVE_DESIGN' ));
ENDSEC;

DATA;
#1 = DIRECTION ( 'NONE',  ( -1.000000000000000000, 0.0000000000000000000, 0.0000000000000000000 ) ) ;
#2 = ORIENTED_EDGE ( 'NONE', *, *, #154, .T. ) ;
#3 = PLANE ( 'NONE',  #19 ) ;
#4 = DIRECTION ( 'NONE',  ( 0.0000000000000000000, -1.224646799147353200E-016, 1.000000000000000000 ) ) ;
#5 = PRODUCT_DEFINITION_SHAPE ( 'NONE', 'NONE',  #42 ) ;
#6 = CARTESIAN_POINT ( 'NONE',  ( 0.0000000000000000000, 0.0000000000000000000, 0.0000000000000000000 ) ) ;
#7 = VERTEX_POINT ( 'NONE', #157 ) ;
#8 = DIRECTION ( 'NONE',  ( -1.000000000000000000, -0.0000000000000000000, -0.0000000000000000000 ) ) ;
#9 = VERTEX_POINT ( 'NONE', #147 ) ;
#10 = ORIENTED_EDGE ( 'NONE', *, *, #180, .T. ) ;
#11 =( NAMED_UNIT ( * ) PLANE_ANGLE_UNIT ( ) SI_UNIT ( $, .RADIAN. ) );
#12 = AXIS2_PLACEMENT_3D ( 'NONE', #135, #4, #71 ) ;
#13 = EDGE_LOOP ( 'NONE', ( #153, #10, #132, #161, #141 ) ) ;
#14 = EDGE_CURVE ( 'NONE', #9, #7, #131, .T. ) ;
#15 = ORIENTED_EDGE ( 'NONE', *, *, #142, .F. ) ;
#16 = LINE ( 'NONE', #150, #59 ) ;
#17 =( GEOMETRIC_REPRESENTATION_CONTEXT ( 3 ) GLOBAL_UNCERTAINTY_ASSIGNED_CONTEXT ( ( #38 ) ) GLOBAL_UNIT_ASSIGNED_CONTEXT ( ( #106, #138, #175 ) ) REPRESENTATION_CONTEXT ( 'NONE', 'WORKASPACE' ) );
#18 = CARTESIAN_POINT ( 'NONE',  ( 430.3178513714382800, 74.76337941865509200, 0.0000000000000000000 ) ) ;
#19 = AXIS2_PLACEMENT_3D ( 'NONE', #66, #80, #103 ) ;
#20 = FACE_OUTER_BOUND ( 'NONE', #75, .T. ) ;
#21 = CARTESIAN_POINT ( 'NONE',  ( 426.6178513714382900, 74.76337941865509200, 0.0000000000000000000 ) ) ;
#22 = APPLICATION_CONTEXT ( 'automotive_design' ) ;
#23 = EDGE_LOOP ( 'NONE', ( #37, #85, #15, #60, #116 ) ) ;
#24 = EDGE_CURVE ( 'NONE', #100, #126, #91, .T. ) ;
#25 = SURFACE_SIDE_STYLE ('',( #112 ) ) ;
#26 = CLOSED_SHELL ( 'NONE', ( #184, #39, #130, #109, #61 ) ) ;
#27 = AXIS2_PLACEMENT_3D ( 'NONE', #35, #152, #137 ) ;
#28 = PRESENTATION_STYLE_ASSIGNMENT (( #182 ) ) ;
#29 = AXIS2_PLACEMENT_3D ( 'NONE', #6, #84, #163 ) ;
#30 = CIRCLE ( 'NONE', #43, 12.70000000000000300 ) ;
#31 = AXIS2_PLACEMENT_3D ( 'NONE', #18, #118, #124 ) ;
#32 = DIRECTION ( 'NONE',  ( 0.0000000000000000000, 0.0000000000000000000, -1.000000000000000000 ) ) ;
#33 = ADVANCED_BREP_SHAPE_REPRESENTATION ( '100472', ( #134, #29 ), #47 ) ;
#34 = DIRECTION ( 'NONE',  ( 0.0000000000000000000, -1.000000000000000000, 0.0000000000000000000 ) ) ;
#35 = CARTESIAN_POINT ( 'NONE',  ( 420.8796333357619200, 74.76337941865509200, 0.0000000000000000000 ) ) ;
#36 = DIRECTION ( 'NONE',  ( 0.0000000000000000000, 0.0000000000000000000, 1.000000000000000000 ) ) ;
#37 = ORIENTED_EDGE ( 'NONE', *, *, #54, .T. ) ;
#38 = UNCERTAINTY_MEASURE_WITH_UNIT (LENGTH_MEASURE( 1.000000000000000100E-005 ), #106, 'distance_accuracy_value', 'NONE');
#39 = ADVANCED_FACE ( 'NONE', ( #48 ), #148, .T. ) ;
#40 = APPLICATION_PROTOCOL_DEFINITION ( 'draft international standard', 'automotive_design', 1998, #165 ) ;
#41 = SPHERICAL_SURFACE ( 'NONE', #90, 268.9666666666691400 ) ;
#42 = PRODUCT_DEFINITION ( 'Î´Öª', '', #104, #76 ) ;
#43 = AXIS2_PLACEMENT_3D ( 'NONE', #21, #125, #36 ) ;
#44 = MECHANICAL_DESIGN_GEOMETRIC_PRESENTATION_REPRESENTATION (  '', ( #123 ), #17 ) ;
#45 = CIRCLE ( 'NONE', #167, 12.70000000000000300 ) ;
#46 = AXIS2_PLACEMENT_3D ( 'NONE', #133, #32, #1 ) ;
#47 =( GEOMETRIC_REPRESENTATION_CONTEXT ( 3 ) GLOBAL_UNCERTAINTY_ASSIGNED_CONTEXT ( ( #168 ) ) GLOBAL_UNIT_ASSIGNED_CONTEXT ( ( #120, #176, #107 ) ) REPRESENTATION_CONTEXT ( 'NONE', 'WORKASPACE' ) );
#48 = FACE_OUTER_BOUND ( 'NONE', #174, .T. ) ;
#49 = CARTESIAN_POINT ( 'NONE',  ( 161.6511847047691500, 74.76337941865519100, 0.0000000000000000000 ) ) ;
#50 = CIRCLE ( 'NONE', #31, 12.70000000000000300 ) ;
#51 = AXIS2_PLACEMENT_3D ( 'NONE', #102, #79, #82 ) ;
#52 = FILL_AREA_STYLE_COLOUR ( '', #156 ) ;
#53 = CARTESIAN_POINT ( 'NONE',  ( 430.3178513714382800, 62.06337941865551500, 0.0000000000000000000 ) ) ;
#54 = EDGE_CURVE ( 'NONE', #113, #9, #185, .T. ) ;
#55 = CARTESIAN_POINT ( 'NONE',  ( 430.6178513714382900, 74.76337941865517700, 0.0000000000000000000 ) ) ;
#56 = VERTEX_POINT ( 'NONE', #67 ) ;
#57 = CARTESIAN_POINT ( 'NONE',  ( 161.6511847047691500, 74.76337941865519100, 0.0000000000000000000 ) ) ;
#58 = DIRECTION ( 'NONE',  ( 0.0000000000000000000, 0.0000000000000000000, 1.000000000000000000 ) ) ;
#59 = VECTOR ( 'NONE', #159, 1000.000000000000000 ) ;
#60 = ORIENTED_EDGE ( 'NONE', *, *, #169, .F. ) ;
#61 = ADVANCED_FACE ( 'NONE', ( #63 ), #3, .F. ) ;
#62 = PRODUCT_RELATED_PRODUCT_CATEGORY ( 'part', '', ( #179 ) ) ;
#63 = FACE_OUTER_BOUND ( 'NONE', #96, .T. ) ;
#64 = DIRECTION ( 'NONE',  ( -1.000000000000000000, -0.0000000000000000000, -0.0000000000000000000 ) ) ;
#65 = MECHANICAL_DESIGN_GEOMETRIC_PRESENTATION_REPRESENTATION (  '', ( #101 ), #144 ) ;
#66 = CARTESIAN_POINT ( 'NONE',  ( 426.6178513714382900, 74.76337941865509200, 0.0000000000000000000 ) ) ;
#67 = CARTESIAN_POINT ( 'NONE',  ( 430.3178513714382800, 74.76337941865509200, 12.70000000000000300 ) ) ;
#68 = SHAPE_DEFINITION_REPRESENTATION ( #5, #33 ) ;
#69 = ORIENTED_EDGE ( 'NONE', *, *, #119, .F. ) ;
#70 = CARTESIAN_POINT ( 'NONE',  ( 430.3178513714382800, 87.46337941865475300, 1.555301434917085800E-015 ) ) ;
#71 = DIRECTION ( 'NONE',  ( 0.0000000000000000000, -1.000000000000000000, -1.224646799147353000E-016 ) ) ;
#72 = DIRECTION ( 'NONE',  ( 0.0000000000000000000, 0.0000000000000000000, 1.000000000000000000 ) ) ;
#73 = CIRCLE ( 'NONE', #98, 12.70000000000000300 ) ;
#74 = ORIENTED_EDGE ( 'NONE', *, *, #119, .T. ) ;
#75 = EDGE_LOOP ( 'NONE', ( #69, #136, #181, #164 ) ) ;
#76 = PRODUCT_DEFINITION_CONTEXT ( 'detailed design', #165, 'design' ) ;
#77 = DIRECTION ( 'NONE',  ( 0.0000000000000000000, -1.000000000000000000, 0.0000000000000000000 ) ) ;
#78 = VERTEX_POINT ( 'NONE', #145 ) ;
#79 = DIRECTION ( 'NONE',  ( -1.000000000000000000, -0.0000000000000000000, -0.0000000000000000000 ) ) ;
#80 = DIRECTION ( 'NONE',  ( 1.000000000000000000, 0.0000000000000000000, 0.0000000000000000000 ) ) ;
#81 = CIRCLE ( 'NONE', #12, 268.9666666666691400 ) ;
#82 = DIRECTION ( 'NONE',  ( 0.0000000000000000000, 0.0000000000000000000, 1.000000000000000000 ) ) ;
#83 = SURFACE_SIDE_STYLE ('',( #122 ) ) ;
#84 = DIRECTION ( 'NONE',  ( 0.0000000000000000000, 0.0000000000000000000, 1.000000000000000000 ) ) ;
#85 = ORIENTED_EDGE ( 'NONE', *, *, #14, .T. ) ;
#86 = VECTOR ( 'NONE', #172, 1000.000000000000000 ) ;
#87 = UNCERTAINTY_MEASURE_WITH_UNIT (LENGTH_MEASURE( 1.000000000000000100E-005 ), #111, 'distance_accuracy_value', 'NONE');
#88 = CYLINDRICAL_SURFACE ( 'NONE', #51, 12.70000000000000300 ) ;
#89 = ORIENTED_EDGE ( 'NONE', *, *, #142, .T. ) ;
#90 = AXIS2_PLACEMENT_3D ( 'NONE', #57, #72, #34 ) ;
#91 = CIRCLE ( 'NONE', #46, 268.9666666666691400 ) ;
#92 = EDGE_CURVE ( 'NONE', #56, #113, #50, .T. ) ;
#93 = ORIENTED_EDGE ( 'NONE', *, *, #92, .F. ) ;
#94 = CARTESIAN_POINT ( 'NONE',  ( 430.3178513714382800, 74.76337941865509200, 0.0000000000000000000 ) ) ;
#95 = APPLICATION_PROTOCOL_DEFINITION ( 'draft international standard', 'automotive_design', 1998, #22 ) ;
#96 = EDGE_LOOP ( 'NONE', ( #89, #2 ) ) ;
#97 = FACE_OUTER_BOUND ( 'NONE', #23, .T. ) ;
#98 = AXIS2_PLACEMENT_3D ( 'NONE', #151, #149, #58 ) ;
#99 = AXIS2_PLACEMENT_3D ( 'NONE', #173, #64, #171 ) ;
#100 = VERTEX_POINT ( 'NONE', #55 ) ;
#101 = STYLED_ITEM ( 'NONE', ( #28 ), #33 ) ;
#102 = CARTESIAN_POINT ( 'NONE',  ( 420.8796333357619200, 74.76337941865509200, 0.0000000000000000000 ) ) ;
#103 = DIRECTION ( 'NONE',  ( 0.0000000000000000000, 0.0000000000000000000, -1.000000000000000000 ) ) ;
#104 = PRODUCT_DEFINITION_FORMATION_WITH_SPECIFIED_SOURCE ( 'ÈÎºÎ', '', #179, .NOT_KNOWN. ) ;
#105 = DIRECTION ( 'NONE',  ( -1.000000000000000000, -0.0000000000000000000, -0.0000000000000000000 ) ) ;
#106 =( LENGTH_UNIT ( ) NAMED_UNIT ( * ) SI_UNIT ( .MILLI., .METRE. ) );
#107 =( NAMED_UNIT ( * ) SI_UNIT ( $, .STERADIAN. ) SOLID_ANGLE_UNIT ( ) );
#108 = FILL_AREA_STYLE_COLOUR ( '', #166 ) ;
#109 = ADVANCED_FACE ( 'NONE', ( #129 ), #88, .T. ) ;
#110 = AXIS2_PLACEMENT_3D ( 'NONE', #177, #105, #121 ) ;
#111 =( LENGTH_UNIT ( ) NAMED_UNIT ( * ) SI_UNIT ( .MILLI., .METRE. ) );
#112 = SURFACE_STYLE_FILL_AREA ( #140 ) ;
#113 = VERTEX_POINT ( 'NONE', #70 ) ;
#114 = AXIS2_PLACEMENT_3D ( 'NONE', #49, #146, #77 ) ;
#115 = CIRCLE ( 'NONE', #110, 12.70000000000000300 ) ;
#116 = ORIENTED_EDGE ( 'NONE', *, *, #92, .T. ) ;
#117 = CARTESIAN_POINT ( 'NONE',  ( 420.8796333357619200, 74.76337941865509200, -12.70000000000000300 ) ) ;
#118 = DIRECTION ( 'NONE',  ( -1.000000000000000000, -0.0000000000000000000, -0.0000000000000000000 ) ) ;
#119 = EDGE_CURVE ( 'NONE', #100, #113, #81, .T. ) ;
#120 =( LENGTH_UNIT ( ) NAMED_UNIT ( * ) SI_UNIT ( .MILLI., .METRE. ) );
#121 = DIRECTION ( 'NONE',  ( 0.0000000000000000000, 0.0000000000000000000, 1.000000000000000000 ) ) ;
#122 = SURFACE_STYLE_FILL_AREA ( #160 ) ;
#123 = STYLED_ITEM ( 'NONE', ( #155 ), #134 ) ;
#124 = DIRECTION ( 'NONE',  ( 0.0000000000000000000, 0.0000000000000000000, 1.000000000000000000 ) ) ;
#125 = DIRECTION ( 'NONE',  ( -1.000000000000000000, -0.0000000000000000000, -0.0000000000000000000 ) ) ;
#126 = VERTEX_POINT ( 'NONE', #53 ) ;
#127 = PRODUCT_CONTEXT ( 'NONE', #22, 'mechanical' ) ;
#128 =( NAMED_UNIT ( * ) SI_UNIT ( $, .STERADIAN. ) SOLID_ANGLE_UNIT ( ) );
#129 = FACE_OUTER_BOUND ( 'NONE', #13, .T. ) ;
#130 = ADVANCED_FACE ( 'NONE', ( #20 ), #41, .T. ) ;
#131 = LINE ( 'NONE', #117, #86 ) ;
#132 = ORIENTED_EDGE ( 'NONE', *, *, #178, .T. ) ;
#133 = CARTESIAN_POINT ( 'NONE',  ( 161.6511847047691500, 74.76337941865519100, 0.0000000000000000000 ) ) ;
#134 = MANIFOLD_SOLID_BREP ( 'Ðý×ª1', #26 ) ;
#135 = CARTESIAN_POINT ( 'NONE',  ( 161.6511847047691500, 74.76337941865519100, 0.0000000000000000000 ) ) ;
#136 = ORIENTED_EDGE ( 'NONE', *, *, #24, .T. ) ;
#137 = DIRECTION ( 'NONE',  ( 0.0000000000000000000, 0.0000000000000000000, 1.000000000000000000 ) ) ;
#138 =( NAMED_UNIT ( * ) PLANE_ANGLE_UNIT ( ) SI_UNIT ( $, .RADIAN. ) );
#139 = DIRECTION ( 'NONE',  ( 0.0000000000000000000, 0.0000000000000000000, 1.000000000000000000 ) ) ;
#140 = FILL_AREA_STYLE ('',( #108 ) ) ;
#141 = ORIENTED_EDGE ( 'NONE', *, *, #154, .F. ) ;
#142 = EDGE_CURVE ( 'NONE', #78, #7, #30, .T. ) ;
#143 = CYLINDRICAL_SURFACE ( 'NONE', #27, 12.70000000000000300 ) ;
#144 =( GEOMETRIC_REPRESENTATION_CONTEXT ( 3 ) GLOBAL_UNCERTAINTY_ASSIGNED_CONTEXT ( ( #87 ) ) GLOBAL_UNIT_ASSIGNED_CONTEXT ( ( #111, #11, #128 ) ) REPRESENTATION_CONTEXT ( 'NONE', 'WORKASPACE' ) );
#145 = CARTESIAN_POINT ( 'NONE',  ( 426.6178513714382900, 74.76337941865509200, 12.70000000000000300 ) ) ;
#146 = DIRECTION ( 'NONE',  ( 0.0000000000000000000, 0.0000000000000000000, 1.000000000000000000 ) ) ;
#147 = CARTESIAN_POINT ( 'NONE',  ( 430.3178513714382800, 74.76337941865509200, -12.70000000000000300 ) ) ;
#148 = SPHERICAL_SURFACE ( 'NONE', #114, 268.9666666666691400 ) ;
#149 = DIRECTION ( 'NONE',  ( -1.000000000000000000, -0.0000000000000000000, -0.0000000000000000000 ) ) ;
#150 = CARTESIAN_POINT ( 'NONE',  ( 420.8796333357619200, 74.76337941865509200, 12.70000000000000300 ) ) ;
#151 = CARTESIAN_POINT ( 'NONE',  ( 430.3178513714382800, 74.76337941865509200, 0.0000000000000000000 ) ) ;
#152 = DIRECTION ( 'NONE',  ( -1.000000000000000000, -0.0000000000000000000, -0.0000000000000000000 ) ) ;
#153 = ORIENTED_EDGE ( 'NONE', *, *, #14, .F. ) ;
#154 = EDGE_CURVE ( 'NONE', #7, #78, #115, .T. ) ;
#155 = PRESENTATION_STYLE_ASSIGNMENT (( #162 ) ) ;
#156 = COLOUR_RGB ( '',1.000000000000000000, 1.000000000000000000, 1.000000000000000000 ) ;
#157 = CARTESIAN_POINT ( 'NONE',  ( 426.6178513714382900, 74.76337941865509200, -12.70000000000000300 ) ) ;
#158 = ORIENTED_EDGE ( 'NONE', *, *, #24, .F. ) ;
#159 = DIRECTION ( 'NONE',  ( -1.000000000000000000, -0.0000000000000000000, -0.0000000000000000000 ) ) ;
#160 = FILL_AREA_STYLE ('',( #52 ) ) ;
#161 = ORIENTED_EDGE ( 'NONE', *, *, #169, .T. ) ;
#162 = SURFACE_STYLE_USAGE ( .BOTH. , #83 ) ;
#163 = DIRECTION ( 'NONE',  ( 1.000000000000000000, 0.0000000000000000000, 0.0000000000000000000 ) ) ;
#164 = ORIENTED_EDGE ( 'NONE', *, *, #54, .F. ) ;
#165 = APPLICATION_CONTEXT ( 'automotive_design' ) ;
#166 = COLOUR_RGB ( '',1.000000000000000000, 1.000000000000000000, 1.000000000000000000 ) ;
#167 = AXIS2_PLACEMENT_3D ( 'NONE', #94, #8, #139 ) ;
#168 = UNCERTAINTY_MEASURE_WITH_UNIT (LENGTH_MEASURE( 1.000000000000000100E-005 ), #120, 'distance_accuracy_value', 'NONE');
#169 = EDGE_CURVE ( 'NONE', #56, #78, #16, .T. ) ;
#170 = ORIENTED_EDGE ( 'NONE', *, *, #178, .F. ) ;
#171 = DIRECTION ( 'NONE',  ( 0.0000000000000000000, 0.0000000000000000000, 1.000000000000000000 ) ) ;
#172 = DIRECTION ( 'NONE',  ( -1.000000000000000000, -0.0000000000000000000, -0.0000000000000000000 ) ) ;
#173 = CARTESIAN_POINT ( 'NONE',  ( 430.3178513714382800, 74.76337941865509200, 0.0000000000000000000 ) ) ;
#174 = EDGE_LOOP ( 'NONE', ( #158, #74, #93, #170 ) ) ;
#175 =( NAMED_UNIT ( * ) SI_UNIT ( $, .STERADIAN. ) SOLID_ANGLE_UNIT ( ) );
#176 =( NAMED_UNIT ( * ) PLANE_ANGLE_UNIT ( ) SI_UNIT ( $, .RADIAN. ) );
#177 = CARTESIAN_POINT ( 'NONE',  ( 426.6178513714382900, 74.76337941865509200, 0.0000000000000000000 ) ) ;
#178 = EDGE_CURVE ( 'NONE', #126, #56, #73, .T. ) ;
#179 = PRODUCT ( '100472', '100472', '', ( #127 ) ) ;
#180 = EDGE_CURVE ( 'NONE', #9, #126, #45, .T. ) ;
#181 = ORIENTED_EDGE ( 'NONE', *, *, #180, .F. ) ;
#182 = SURFACE_STYLE_USAGE ( .BOTH. , #25 ) ;
#183 = PRESENTATION_LAYER_ASSIGNMENT (  '', '', ( #101 ) ) ;
#184 = ADVANCED_FACE ( 'NONE', ( #97 ), #143, .T. ) ;
#185 = CIRCLE ( 'NONE', #99, 12.70000000000000300 ) ;
#186 = PRESENTATION_LAYER_ASSIGNMENT (  '', '', ( #123 ) ) ;
ENDSEC;
END-ISO-10303-21;
