ISO-10303-21;
HEADER;
FILE_DESCRIPTION (( 'STEP AP214' ),
    '1' );
FILE_NAME ('100497.STEP',
    '2019-06-12T06:09:57',
    ( '' ),
    ( '' ),
    'SwSTEP 2.0',
    'SolidWorks 2016',
    '' );
FILE_SCHEMA (( 'AUTOMOTIVE_DESIGN' ));
ENDSEC;

DATA;
#1 = ADVANCED_FACE ( 'NONE', ( #71 ), #99, .T. ) ;
#2 = ORIENTED_EDGE ( 'NONE', *, *, #17, .T. ) ;
#3 = DIRECTION ( 'NONE',  ( 0.0000000000000000000, 0.0000000000000000000, 1.000000000000000000 ) ) ;
#4 = DIRECTION ( 'NONE',  ( -1.000000000000000000, -0.0000000000000000000, -0.0000000000000000000 ) ) ;
#5 = AXIS2_PLACEMENT_3D ( 'NONE', #38, #10, #91 ) ;
#6 = VERTEX_POINT ( 'NONE', #31 ) ;
#7 = DIRECTION ( 'NONE',  ( 0.0000000000000000000, 0.0000000000000000000, 1.000000000000000000 ) ) ;
#8 = FACE_OUTER_BOUND ( 'NONE', #101, .T. ) ;
#9 = CYLINDRICAL_SURFACE ( 'NONE', #171, 12.70000000000000300 ) ;
#10 = DIRECTION ( 'NONE',  ( -1.000000000000000000, -0.0000000000000000000, -0.0000000000000000000 ) ) ;
#11 = PRODUCT_DEFINITION_CONTEXT ( 'detailed design', #147, 'design' ) ;
#12 = CARTESIAN_POINT ( 'NONE',  ( 115.7952692796455800, 65.23355492641219700, 12.70000000000000300 ) ) ;
#13 = FILL_AREA_STYLE_COLOUR ( '', #138 ) ;
#14 = ORIENTED_EDGE ( 'NONE', *, *, #129, .F. ) ;
#15 = EDGE_LOOP ( 'NONE', ( #52, #2 ) ) ;
#16 = UNCERTAINTY_MEASURE_WITH_UNIT (LENGTH_MEASURE( 1.000000000000000100E-005 ), #96, 'distance_accuracy_value', 'NONE');
#17 = EDGE_CURVE ( 'NONE', #115, #186, #57, .T. ) ;
#18 = PLANE ( 'NONE',  #67 ) ;
#19 = ADVANCED_FACE ( 'NONE', ( #131 ), #94, .T. ) ;
#20 = DIRECTION ( 'NONE',  ( 0.0000000000000000000, -1.000000000000000000, 0.0000000000000000000 ) ) ;
#21 = CARTESIAN_POINT ( 'NONE',  ( 117.7952692796455800, 65.23355492641219700, 0.0000000000000000000 ) ) ;
#22 = CIRCLE ( 'NONE', #95, 12.70000000000000300 ) ;
#23 = SURFACE_STYLE_USAGE ( .BOTH. , #156 ) ;
#24 = EDGE_CURVE ( 'NONE', #81, #73, #72, .T. ) ;
#25 = FILL_AREA_STYLE ('',( #13 ) ) ;
#26 = FACE_OUTER_BOUND ( 'NONE', #15, .T. ) ;
#27 = ORIENTED_EDGE ( 'NONE', *, *, #41, .T. ) ;
#28 = CIRCLE ( 'NONE', #55, 12.70000000000000300 ) ;
#29 =( NAMED_UNIT ( * ) PLANE_ANGLE_UNIT ( ) SI_UNIT ( $, .RADIAN. ) );
#30 = CARTESIAN_POINT ( 'NONE',  ( 117.7952692796456200, 77.93355492641204300, 1.555301434917064100E-015 ) ) ;
#31 = CARTESIAN_POINT ( 'NONE',  ( 117.7952692796455800, 65.23355492641219700, -12.70000000000000300 ) ) ;
#32 = CARTESIAN_POINT ( 'NONE',  ( 117.8952692796455600, 65.23355492641259400, 0.0000000000000000000 ) ) ;
#33 = EDGE_CURVE ( 'NONE', #137, #186, #65, .T. ) ;
#34 = CARTESIAN_POINT ( 'NONE',  ( 117.7952692796455800, 65.23355492641219700, 0.0000000000000000000 ) ) ;
#35 = DIRECTION ( 'NONE',  ( 0.0000000000000000000, 0.0000000000000000000, 1.000000000000000000 ) ) ;
#36 = ORIENTED_EDGE ( 'NONE', *, *, #39, .T. ) ;
#37 = FILL_AREA_STYLE_COLOUR ( '', #112 ) ;
#38 = CARTESIAN_POINT ( 'NONE',  ( 115.7952692796455800, 65.23355492641219700, 0.0000000000000000000 ) ) ;
#39 = EDGE_CURVE ( 'NONE', #137, #73, #173, .T. ) ;
#40 = ORIENTED_EDGE ( 'NONE', *, *, #24, .F. ) ;
#41 = EDGE_CURVE ( 'NONE', #6, #115, #100, .T. ) ;
#42 =( NAMED_UNIT ( * ) SI_UNIT ( $, .STERADIAN. ) SOLID_ANGLE_UNIT ( ) );
#43 = PRODUCT_CONTEXT ( 'NONE', #105, 'mechanical' ) ;
#44 = CARTESIAN_POINT ( 'NONE',  ( 117.7952692796456200, 52.53355492641280500, 0.0000000000000000000 ) ) ;
#45 = EDGE_LOOP ( 'NONE', ( #178, #27, #14, #160, #36 ) ) ;
#46 = PRODUCT ( '100497', '100497', '', ( #43 ) ) ;
#47 = EDGE_CURVE ( 'NONE', #69, #137, #56, .T. ) ;
#48 = DIRECTION ( 'NONE',  ( 0.0000000000000000000, -1.000000000000000000, 0.0000000000000000000 ) ) ;
#49 = UNCERTAINTY_MEASURE_WITH_UNIT (LENGTH_MEASURE( 1.000000000000000100E-005 ), #70, 'distance_accuracy_value', 'NONE');
#50 = DIRECTION ( 'NONE',  ( 1.000000000000000000, 0.0000000000000000000, 0.0000000000000000000 ) ) ;
#51 = CARTESIAN_POINT ( 'NONE',  ( -688.6047307204011100, 65.23355492641265100, 0.0000000000000000000 ) ) ;
#52 = ORIENTED_EDGE ( 'NONE', *, *, #129, .T. ) ;
#53 = PRESENTATION_LAYER_ASSIGNMENT (  '', '', ( #102 ) ) ;
#54 =( NAMED_UNIT ( * ) SI_UNIT ( $, .STERADIAN. ) SOLID_ANGLE_UNIT ( ) );
#55 = AXIS2_PLACEMENT_3D ( 'NONE', #68, #127, #141 ) ;
#56 = CIRCLE ( 'NONE', #97, 12.70000000000000300 ) ;
#57 = CIRCLE ( 'NONE', #122, 12.70000000000000300 ) ;
#58 = CARTESIAN_POINT ( 'NONE',  ( 0.0000000000000000000, 0.0000000000000000000, 0.0000000000000000000 ) ) ;
#59 = ADVANCED_FACE ( 'NONE', ( #26 ), #18, .F. ) ;
#60 = VECTOR ( 'NONE', #90, 1000.000000000000000 ) ;
#61 = APPLICATION_PROTOCOL_DEFINITION ( 'draft international standard', 'automotive_design', 1998, #147 ) ;
#62 = CARTESIAN_POINT ( 'NONE',  ( -688.6047307204011100, 65.23355492641265100, 0.0000000000000000000 ) ) ;
#63 = DIRECTION ( 'NONE',  ( -1.000000000000000000, -0.0000000000000000000, -0.0000000000000000000 ) ) ;
#64 = DIRECTION ( 'NONE',  ( 0.0000000000000000000, 0.0000000000000000000, -1.000000000000000000 ) ) ;
#65 = LINE ( 'NONE', #135, #104 ) ;
#66 = CARTESIAN_POINT ( 'NONE',  ( 117.7952692796455800, 65.23355492641219700, 12.70000000000000300 ) ) ;
#67 = AXIS2_PLACEMENT_3D ( 'NONE', #125, #50, #77 ) ;
#68 = CARTESIAN_POINT ( 'NONE',  ( 117.7952692796455800, 65.23355492641219700, 0.0000000000000000000 ) ) ;
#69 = VERTEX_POINT ( 'NONE', #44 ) ;
#70 =( LENGTH_UNIT ( ) NAMED_UNIT ( * ) SI_UNIT ( .MILLI., .METRE. ) );
#71 = FACE_OUTER_BOUND ( 'NONE', #146, .T. ) ;
#72 = CIRCLE ( 'NONE', #136, 806.5000000000466100 ) ;
#73 = VERTEX_POINT ( 'NONE', #30 ) ;
#74 = AXIS2_PLACEMENT_3D ( 'NONE', #152, #64, #92 ) ;
#75 = DIRECTION ( 'NONE',  ( 1.000000000000000000, 0.0000000000000000000, 0.0000000000000000000 ) ) ;
#76 = ORIENTED_EDGE ( 'NONE', *, *, #41, .F. ) ;
#77 = DIRECTION ( 'NONE',  ( 0.0000000000000000000, 0.0000000000000000000, -1.000000000000000000 ) ) ;
#78 = CARTESIAN_POINT ( 'NONE',  ( 110.1653732284884500, 65.23355492641219700, 0.0000000000000000000 ) ) ;
#79 = SURFACE_STYLE_FILL_AREA ( #153 ) ;
#80 = CARTESIAN_POINT ( 'NONE',  ( 110.1653732284884500, 65.23355492641219700, 0.0000000000000000000 ) ) ;
#81 = VERTEX_POINT ( 'NONE', #32 ) ;
#82 = AXIS2_PLACEMENT_3D ( 'NONE', #80, #109, #184 ) ;
#83 = UNCERTAINTY_MEASURE_WITH_UNIT (LENGTH_MEASURE( 1.000000000000000100E-005 ), #161, 'distance_accuracy_value', 'NONE');
#84 = EDGE_CURVE ( 'NONE', #6, #69, #22, .T. ) ;
#85 = ORIENTED_EDGE ( 'NONE', *, *, #33, .T. ) ;
#86 = PRESENTATION_STYLE_ASSIGNMENT (( #23 ) ) ;
#87 = SURFACE_STYLE_USAGE ( .BOTH. , #118 ) ;
#88 = CLOSED_SHELL ( 'NONE', ( #123, #1, #19, #176, #59 ) ) ;
#89 = DIRECTION ( 'NONE',  ( 0.0000000000000000000, 0.0000000000000000000, 1.000000000000000000 ) ) ;
#90 = DIRECTION ( 'NONE',  ( -1.000000000000000000, -0.0000000000000000000, -0.0000000000000000000 ) ) ;
#91 = DIRECTION ( 'NONE',  ( 0.0000000000000000000, 0.0000000000000000000, 1.000000000000000000 ) ) ;
#92 = DIRECTION ( 'NONE',  ( -1.000000000000000000, 0.0000000000000000000, 0.0000000000000000000 ) ) ;
#93 = PRESENTATION_STYLE_ASSIGNMENT (( #87 ) ) ;
#94 = SPHERICAL_SURFACE ( 'NONE', #172, 806.5000000000466100 ) ;
#95 = AXIS2_PLACEMENT_3D ( 'NONE', #139, #179, #35 ) ;
#96 =( LENGTH_UNIT ( ) NAMED_UNIT ( * ) SI_UNIT ( .MILLI., .METRE. ) );
#97 = AXIS2_PLACEMENT_3D ( 'NONE', #21, #4, #148 ) ;
#98 = EDGE_CURVE ( 'NONE', #81, #69, #144, .T. ) ;
#99 = SPHERICAL_SURFACE ( 'NONE', #165, 806.5000000000466100 ) ;
#100 = LINE ( 'NONE', #121, #60 ) ;
#101 = EDGE_LOOP ( 'NONE', ( #76, #108, #155, #85, #181 ) ) ;
#102 = STYLED_ITEM ( 'NONE', ( #86 ), #157 ) ;
#103 = SURFACE_STYLE_FILL_AREA ( #25 ) ;
#104 = VECTOR ( 'NONE', #150, 1000.000000000000000 ) ;
#105 = APPLICATION_CONTEXT ( 'automotive_design' ) ;
#106 = STYLED_ITEM ( 'NONE', ( #93 ), #169 ) ;
#107 = PRODUCT_DEFINITION_SHAPE ( 'NONE', 'NONE',  #154 ) ;
#108 = ORIENTED_EDGE ( 'NONE', *, *, #84, .T. ) ;
#109 = DIRECTION ( 'NONE',  ( -1.000000000000000000, -0.0000000000000000000, -0.0000000000000000000 ) ) ;
#110 = DIRECTION ( 'NONE',  ( -1.000000000000000000, -0.0000000000000000000, -0.0000000000000000000 ) ) ;
#111 = DIRECTION ( 'NONE',  ( 0.0000000000000000000, 0.0000000000000000000, 1.000000000000000000 ) ) ;
#112 = COLOUR_RGB ( '',1.000000000000000000, 1.000000000000000000, 1.000000000000000000 ) ;
#113 =( GEOMETRIC_REPRESENTATION_CONTEXT ( 3 ) GLOBAL_UNCERTAINTY_ASSIGNED_CONTEXT ( ( #49 ) ) GLOBAL_UNIT_ASSIGNED_CONTEXT ( ( #70, #168, #183 ) ) REPRESENTATION_CONTEXT ( 'NONE', 'WORKASPACE' ) );
#114 = SHAPE_DEFINITION_REPRESENTATION ( #107, #169 ) ;
#115 = VERTEX_POINT ( 'NONE', #164 ) ;
#116 = PRODUCT_RELATED_PRODUCT_CATEGORY ( 'part', '', ( #46 ) ) ;
#117 = ORIENTED_EDGE ( 'NONE', *, *, #47, .F. ) ;
#118 = SURFACE_SIDE_STYLE ('',( #103 ) ) ;
#119 = CARTESIAN_POINT ( 'NONE',  ( 115.7952692796455800, 65.23355492641219700, 0.0000000000000000000 ) ) ;
#120 = ORIENTED_EDGE ( 'NONE', *, *, #134, .F. ) ;
#121 = CARTESIAN_POINT ( 'NONE',  ( 110.1653732284884500, 65.23355492641219700, -12.70000000000000300 ) ) ;
#122 = AXIS2_PLACEMENT_3D ( 'NONE', #119, #110, #89 ) ;
#123 = ADVANCED_FACE ( 'NONE', ( #170 ), #9, .T. ) ;
#124 = PRODUCT_DEFINITION_FORMATION_WITH_SPECIFIED_SOURCE ( 'ÈÎºÎ', '', #46, .NOT_KNOWN. ) ;
#125 = CARTESIAN_POINT ( 'NONE',  ( 115.7952692796455800, 65.23355492641219700, 0.0000000000000000000 ) ) ;
#126 = CARTESIAN_POINT ( 'NONE',  ( -688.6047307204011100, 65.23355492641265100, 0.0000000000000000000 ) ) ;
#127 = DIRECTION ( 'NONE',  ( -1.000000000000000000, -0.0000000000000000000, -0.0000000000000000000 ) ) ;
#128 = EDGE_LOOP ( 'NONE', ( #40, #158, #145, #120 ) ) ;
#129 = EDGE_CURVE ( 'NONE', #186, #115, #140, .T. ) ;
#130 = MECHANICAL_DESIGN_GEOMETRIC_PRESENTATION_REPRESENTATION (  '', ( #102 ), #113 ) ;
#131 = FACE_OUTER_BOUND ( 'NONE', #128, .T. ) ;
#132 =( GEOMETRIC_REPRESENTATION_CONTEXT ( 3 ) GLOBAL_UNCERTAINTY_ASSIGNED_CONTEXT ( ( #83 ) ) GLOBAL_UNIT_ASSIGNED_CONTEXT ( ( #161, #29, #42 ) ) REPRESENTATION_CONTEXT ( 'NONE', 'WORKASPACE' ) );
#133 = DIRECTION ( 'NONE',  ( 0.0000000000000000000, -1.224646799147353200E-016, 1.000000000000000000 ) ) ;
#134 = EDGE_CURVE ( 'NONE', #73, #6, #28, .T. ) ;
#135 = CARTESIAN_POINT ( 'NONE',  ( 110.1653732284884500, 65.23355492641219700, 12.70000000000000300 ) ) ;
#136 = AXIS2_PLACEMENT_3D ( 'NONE', #51, #133, #163 ) ;
#137 = VERTEX_POINT ( 'NONE', #66 ) ;
#138 = COLOUR_RGB ( '',1.000000000000000000, 1.000000000000000000, 1.000000000000000000 ) ;
#139 = CARTESIAN_POINT ( 'NONE',  ( 117.7952692796455800, 65.23355492641219700, 0.0000000000000000000 ) ) ;
#140 = CIRCLE ( 'NONE', #5, 12.70000000000000300 ) ;
#141 = DIRECTION ( 'NONE',  ( 0.0000000000000000000, 0.0000000000000000000, 1.000000000000000000 ) ) ;
#142 =( NAMED_UNIT ( * ) PLANE_ANGLE_UNIT ( ) SI_UNIT ( $, .RADIAN. ) );
#143 =( GEOMETRIC_REPRESENTATION_CONTEXT ( 3 ) GLOBAL_UNCERTAINTY_ASSIGNED_CONTEXT ( ( #16 ) ) GLOBAL_UNIT_ASSIGNED_CONTEXT ( ( #96, #142, #54 ) ) REPRESENTATION_CONTEXT ( 'NONE', 'WORKASPACE' ) );
#144 = CIRCLE ( 'NONE', #74, 806.5000000000466100 ) ;
#145 = ORIENTED_EDGE ( 'NONE', *, *, #84, .F. ) ;
#146 = EDGE_LOOP ( 'NONE', ( #162, #151, #175, #117 ) ) ;
#147 = APPLICATION_CONTEXT ( 'automotive_design' ) ;
#148 = DIRECTION ( 'NONE',  ( 0.0000000000000000000, 0.0000000000000000000, 1.000000000000000000 ) ) ;
#149 = MECHANICAL_DESIGN_GEOMETRIC_PRESENTATION_REPRESENTATION (  '', ( #106 ), #132 ) ;
#150 = DIRECTION ( 'NONE',  ( -1.000000000000000000, -0.0000000000000000000, -0.0000000000000000000 ) ) ;
#151 = ORIENTED_EDGE ( 'NONE', *, *, #24, .T. ) ;
#152 = CARTESIAN_POINT ( 'NONE',  ( -688.6047307204011100, 65.23355492641265100, 0.0000000000000000000 ) ) ;
#153 = FILL_AREA_STYLE ('',( #37 ) ) ;
#154 = PRODUCT_DEFINITION ( 'Î´Öª', '', #124, #11 ) ;
#155 = ORIENTED_EDGE ( 'NONE', *, *, #47, .T. ) ;
#156 = SURFACE_SIDE_STYLE ('',( #79 ) ) ;
#157 = MANIFOLD_SOLID_BREP ( 'Ðý×ª1', #88 ) ;
#158 = ORIENTED_EDGE ( 'NONE', *, *, #98, .T. ) ;
#159 = AXIS2_PLACEMENT_3D ( 'NONE', #58, #3, #75 ) ;
#160 = ORIENTED_EDGE ( 'NONE', *, *, #33, .F. ) ;
#161 =( LENGTH_UNIT ( ) NAMED_UNIT ( * ) SI_UNIT ( .MILLI., .METRE. ) );
#162 = ORIENTED_EDGE ( 'NONE', *, *, #98, .F. ) ;
#163 = DIRECTION ( 'NONE',  ( 0.0000000000000000000, -1.000000000000000000, -1.224646799147353200E-016 ) ) ;
#164 = CARTESIAN_POINT ( 'NONE',  ( 115.7952692796455800, 65.23355492641219700, -12.70000000000000300 ) ) ;
#165 = AXIS2_PLACEMENT_3D ( 'NONE', #62, #177, #20 ) ;
#166 = DIRECTION ( 'NONE',  ( 0.0000000000000000000, 0.0000000000000000000, 1.000000000000000000 ) ) ;
#167 = DIRECTION ( 'NONE',  ( -1.000000000000000000, -0.0000000000000000000, -0.0000000000000000000 ) ) ;
#168 =( NAMED_UNIT ( * ) PLANE_ANGLE_UNIT ( ) SI_UNIT ( $, .RADIAN. ) );
#169 = ADVANCED_BREP_SHAPE_REPRESENTATION ( '100497', ( #157, #159 ), #143 ) ;
#170 = FACE_OUTER_BOUND ( 'NONE', #45, .T. ) ;
#171 = AXIS2_PLACEMENT_3D ( 'NONE', #78, #167, #111 ) ;
#172 = AXIS2_PLACEMENT_3D ( 'NONE', #126, #7, #48 ) ;
#173 = CIRCLE ( 'NONE', #185, 12.70000000000000300 ) ;
#174 = APPLICATION_PROTOCOL_DEFINITION ( 'draft international standard', 'automotive_design', 1998, #105 ) ;
#175 = ORIENTED_EDGE ( 'NONE', *, *, #39, .F. ) ;
#176 = ADVANCED_FACE ( 'NONE', ( #8 ), #180, .T. ) ;
#177 = DIRECTION ( 'NONE',  ( 0.0000000000000000000, 0.0000000000000000000, 1.000000000000000000 ) ) ;
#178 = ORIENTED_EDGE ( 'NONE', *, *, #134, .T. ) ;
#179 = DIRECTION ( 'NONE',  ( -1.000000000000000000, -0.0000000000000000000, -0.0000000000000000000 ) ) ;
#180 = CYLINDRICAL_SURFACE ( 'NONE', #82, 12.70000000000000300 ) ;
#181 = ORIENTED_EDGE ( 'NONE', *, *, #17, .F. ) ;
#182 = PRESENTATION_LAYER_ASSIGNMENT (  '', '', ( #106 ) ) ;
#183 =( NAMED_UNIT ( * ) SI_UNIT ( $, .STERADIAN. ) SOLID_ANGLE_UNIT ( ) );
#184 = DIRECTION ( 'NONE',  ( 0.0000000000000000000, 0.0000000000000000000, 1.000000000000000000 ) ) ;
#185 = AXIS2_PLACEMENT_3D ( 'NONE', #34, #63, #166 ) ;
#186 = VERTEX_POINT ( 'NONE', #12 ) ;
ENDSEC;
END-ISO-10303-21;
