ISO-10303-21;
HEADER;
FILE_DESCRIPTION (( 'STEP AP203' ),
    '1' );
FILE_NAME ('110103.STEP',
    '2019-07-08T07:08:43',
    ( '' ),
    ( '' ),
    'SwSTEP 2.0',
    'SolidWorks 2016',
    '' );
FILE_SCHEMA (( 'CONFIG_CONTROL_DESIGN' ));
ENDSEC;

DATA;
#1 =( NAMED_UNIT ( * ) PLANE_ANGLE_UNIT ( ) SI_UNIT ( $, .RADIAN. ) );
#2 = FACE_OUTER_BOUND ( 'NONE', #268, .T. ) ;
#3 = CC_DESIGN_PERSON_AND_ORGANIZATION_ASSIGNMENT ( #225, #310, ( #334 ) ) ;
#4 = FACE_OUTER_BOUND ( 'NONE', #259, .T. ) ;
#5 = ORIENTED_EDGE ( 'NONE', *, *, #64, .T. ) ;
#6 = EDGE_CURVE ( 'NONE', #294, #297, #79, .T. ) ;
#7 = APPLICATION_PROTOCOL_DEFINITION ( 'international standard', 'config_control_design', 1994, #9 ) ;
#8 = ORIENTED_EDGE ( 'NONE', *, *, #307, .F. ) ;
#9 = APPLICATION_CONTEXT ( 'configuration controlled 3d designs of mechanical parts and assemblies' ) ;
#10 = CC_DESIGN_APPROVAL ( #111, ( #209 ) ) ;
#11 = DIRECTION ( 'NONE',  ( -1.000000000000000000, -0.0000000000000000000, -0.0000000000000000000 ) ) ;
#12 = APPROVAL_STATUS ( 'not_yet_approved' ) ;
#13 = DIRECTION ( 'NONE',  ( 0.0000000000000000000, 1.000000000000000000, 1.224646799147353200E-016 ) ) ;
#14 = CYLINDRICAL_SURFACE ( 'NONE', #15, 12.69999999999982000 ) ;
#15 = AXIS2_PLACEMENT_3D ( 'NONE', #91, #11, #69 ) ;
#16 = CARTESIAN_POINT ( 'NONE',  ( 0.0000000000000000000, 0.0000000000000000000, 0.0000000000000000000 ) ) ;
#17 = ORIENTED_EDGE ( 'NONE', *, *, #47, .T. ) ;
#18 = CALENDAR_DATE ( 2019, 8, 7 ) ;
#19 = DIRECTION ( 'NONE',  ( -1.000000000000000000, -0.0000000000000000000, -0.0000000000000000000 ) ) ;
#20 = CARTESIAN_POINT ( 'NONE',  ( 87.95817263180538200, 48.61611302318477400, 0.0000000000000000000 ) ) ;
#21 = APPROVAL_PERSON_ORGANIZATION ( #255, #176, #163 ) ;
#22 = CIRCLE ( 'NONE', #313, 12.69999999999998900 ) ;
#23 = APPROVAL ( #12, 'Î´Ö¸¶¨' ) ;
#24 = PERSON ( 'Î´Ö¸¶¨', 'Î´Ö¸¶¨', 'Î´Ö¸¶¨', ('Î´Ö¸¶¨'), ('Î´Ö¸¶¨'), ('Î´Ö¸¶¨') ) ;
#25 = ORIENTED_EDGE ( 'NONE', *, *, #161, .F. ) ;
#26 = CARTESIAN_POINT ( 'NONE',  ( 87.95817263180538200, 61.31611302318422900, 0.0000000000000000000 ) ) ;
#27 = EDGE_CURVE ( 'NONE', #90, #294, #164, .T. ) ;
#28 =( LENGTH_UNIT ( ) NAMED_UNIT ( * ) SI_UNIT ( .MILLI., .METRE. ) );
#29 = ORIENTED_EDGE ( 'NONE', *, *, #278, .F. ) ;
#30 = LOCAL_TIME ( 15, 8, 43.00000000000000000, #226 ) ;
#31 = PRODUCT_DEFINITION_FORMATION_WITH_SPECIFIED_SOURCE ( 'ÈÎºÎ', '', #83, .NOT_KNOWN. ) ;
#32 = CIRCLE ( 'NONE', #186, 12.69999999999964900 ) ;
#33 = VERTEX_POINT ( 'NONE', #223 ) ;
#34 = AXIS2_PLACEMENT_3D ( 'NONE', #338, #19, #43 ) ;
#35 = ORIENTED_EDGE ( 'NONE', *, *, #278, .T. ) ;
#36 = LOCAL_TIME ( 15, 8, 43.00000000000000000, #84 ) ;
#37 = LOCAL_TIME ( 15, 8, 43.00000000000000000, #321 ) ;
#38 = PERSON_AND_ORGANIZATION_ROLE ( 'design_owner' ) ;
#39 = MECHANICAL_CONTEXT ( 'NONE', #9, 'mechanical' ) ;
#40 = APPROVAL_STATUS ( 'not_yet_approved' ) ;
#41 = CC_DESIGN_DATE_AND_TIME_ASSIGNMENT ( #208, #333, ( #334 ) ) ;
#42 = ADVANCED_FACE ( 'NONE', ( #2 ), #155, .T. ) ;
#43 = DIRECTION ( 'NONE',  ( 0.0000000000000000000, 0.0000000000000000000, 1.000000000000000000 ) ) ;
#44 = ORIENTED_EDGE ( 'NONE', *, *, #307, .T. ) ;
#45 = PRODUCT_DEFINITION_SHAPE ( 'NONE', 'NONE',  #209 ) ;
#46 = DATE_AND_TIME ( #141, #58 ) ;
#47 = EDGE_CURVE ( 'NONE', #56, #297, #290, .T. ) ;
#48 = CARTESIAN_POINT ( 'NONE',  ( 84.95821491751965500, 48.61611302318477400, 0.0000000000000000000 ) ) ;
#49 = CIRCLE ( 'NONE', #218, 733.0695210163725100 ) ;
#50 = CC_DESIGN_PERSON_AND_ORGANIZATION_ASSIGNMENT ( #222, #166, ( #209 ) ) ;
#51 = DATE_AND_TIME ( #18, #37 ) ;
#52 = EDGE_CURVE ( 'NONE', #232, #337, #341, .T. ) ;
#53 = PRODUCT_DEFINITION ( 'Î´Öª', '', #165, #306 ) ;
#54 = PERSON_AND_ORGANIZATION ( #24, #192 ) ;
#55 = LOCAL_TIME ( 15, 8, 43.00000000000000000, #138 ) ;
#56 = VERTEX_POINT ( 'NONE', #75 ) ;
#58 = LOCAL_TIME ( 15, 8, 43.00000000000000000, #339 ) ;
#57 = LOCAL_TIME ( 15, 8, 43.00000000000000000, #274 ) ;
#59 = PERSON_AND_ORGANIZATION ( #24, #192 ) ;
#60 = AXIS2_PLACEMENT_3D ( 'NONE', #296, #319, #171 ) ;
#61 = PRODUCT_RELATED_PRODUCT_CATEGORY ( 'detail', '', ( #113 ) ) ;
#62 = ORIENTED_EDGE ( 'NONE', *, *, #52, .T. ) ;
#63 = LOCAL_TIME ( 15, 8, 43.00000000000000000, #151 ) ;
#64 = EDGE_CURVE ( 'NONE', #189, #314, #228, .T. ) ;
#65 = APPROVAL_ROLE ( '' ) ;
#66 = CARTESIAN_POINT ( 'NONE',  ( 0.0000000000000000000, 0.0000000000000000000, 0.0000000000000000000 ) ) ;
#67 = CC_DESIGN_PERSON_AND_ORGANIZATION_ASSIGNMENT ( #309, #256, ( #242 ) ) ;
#68 = CIRCLE ( 'NONE', #60, 12.69999999999964900 ) ;
#69 = DIRECTION ( 'NONE',  ( 0.0000000000000000000, 0.0000000000000000000, 1.000000000000000000 ) ) ;
#70 = APPROVAL_ROLE ( '' ) ;
#71 = PERSON_AND_ORGANIZATION ( #24, #192 ) ;
#72 = APPROVAL_PERSON_ORGANIZATION ( #213, #23, #70 ) ;
#73 = ORIENTED_EDGE ( 'NONE', *, *, #88, .T. ) ;
#74 = EDGE_CURVE ( 'NONE', #286, #56, #68, .T. ) ;
#75 = CARTESIAN_POINT ( 'NONE',  ( 84.95821491751965500, 61.31611302318623300, 0.0000000000000000000 ) ) ;
#76 = DIRECTION ( 'NONE',  ( -1.000000000000000000, -0.0000000000000000000, -0.0000000000000000000 ) ) ;
#77 = APPROVAL_PERSON_ORGANIZATION ( #71, #122, #136 ) ;
#78 = DIRECTION ( 'NONE',  ( -1.000000000000000000, -0.0000000000000000000, -0.0000000000000000000 ) ) ;
#79 = CIRCLE ( 'NONE', #153, 733.0695210160517900 ) ;
#80 = ADVANCED_FACE ( 'NONE', ( #112 ), #177, .T. ) ;
#81 = LINE ( 'NONE', #154, #231 ) ;
#82 = CC_DESIGN_PERSON_AND_ORGANIZATION_ASSIGNMENT ( #330, #129, ( #165 ) ) ;
#83 = PRODUCT ( '110103', '110103', '', ( #39 ) ) ;
#84 = COORDINATED_UNIVERSAL_TIME_OFFSET ( 8, 0, .AHEAD. ) ;
#85 = ADVANCED_BREP_SHAPE_REPRESENTATION ( '110103', ( #126, #327 ), #325 ) ;
#86 = CARTESIAN_POINT ( 'NONE',  ( 817.9177176478571000, 48.61611302318881700, 0.0000000000000000000 ) ) ;
#87 = DIRECTION ( 'NONE',  ( 0.0000000000000000000, 1.000000000000000000, 1.224646799147353200E-016 ) ) ;
#88 = EDGE_CURVE ( 'NONE', #314, #232, #22, .T. ) ;
#89 = DIRECTION ( 'NONE',  ( -1.000000000000000000, -0.0000000000000000000, -0.0000000000000000000 ) ) ;
#90 = VERTEX_POINT ( 'NONE', #118 ) ;
#91 = CARTESIAN_POINT ( 'NONE',  ( 83.37198105152671700, 48.61611302318477400, 0.0000000000000000000 ) ) ;
#92 = PRODUCT_RELATED_PRODUCT_CATEGORY ( 'detail', '', ( #83 ) ) ;
#93 = CIRCLE ( 'NONE', #178, 733.0695210163725100 ) ;
#94 = SECURITY_CLASSIFICATION_LEVEL ( 'unclassified' ) ;
#95 = AXIS2_PLACEMENT_3D ( 'NONE', #317, #76, #269 ) ;
#96 = ORIENTED_EDGE ( 'NONE', *, *, #107, .T. ) ;
#97 = EDGE_CURVE ( 'NONE', #33, #189, #49, .T. ) ;
#98 = APPROVAL ( #40, 'Î´Ö¸¶¨' ) ;
#99 = ORIENTED_EDGE ( 'NONE', *, *, #315, .T. ) ;
#100 = APPLICATION_PROTOCOL_DEFINITION ( 'international standard', 'config_control_design', 1994, #308 ) ;
#101 = MECHANICAL_CONTEXT ( 'NONE', #308, 'mechanical' ) ;
#102 = CC_DESIGN_PERSON_AND_ORGANIZATION_ASSIGNMENT ( #54, #324, ( #31 ) ) ;
#103 = ORIENTED_EDGE ( 'NONE', *, *, #315, .F. ) ;
#104 = DATE_TIME_ROLE ( 'classification_date' ) ;
#105 = APPROVAL_PERSON_ORGANIZATION ( #206, #111, #65 ) ;
#106 = ORIENTED_EDGE ( 'NONE', *, *, #97, .F. ) ;
#107 = EDGE_CURVE ( 'NONE', #337, #286, #81, .T. ) ;
#108 = DIRECTION ( 'NONE',  ( 0.0000000000000000000, 1.000000000000000000, 0.0000000000000000000 ) ) ;
#109 = COORDINATED_UNIVERSAL_TIME_OFFSET ( 8, 0, .AHEAD. ) ;
#110 = PERSON_AND_ORGANIZATION ( #24, #192 ) ;
#111 = APPROVAL ( #133, 'Î´Ö¸¶¨' ) ;
#112 = FACE_OUTER_BOUND ( 'NONE', #329, .T. ) ;
#113 = PRODUCT ( '110103', '110103', '', ( #101 ) ) ;
#114 = AXIS2_PLACEMENT_3D ( 'NONE', #66, #217, #262 ) ;
#115 = CALENDAR_DATE ( 2019, 8, 7 ) ;
#116 = DIRECTION ( 'NONE',  ( 0.0000000000000000000, 1.000000000000000000, 0.0000000000000000000 ) ) ;
#117 = ORIENTED_EDGE ( 'NONE', *, *, #161, .T. ) ;
#118 = CARTESIAN_POINT ( 'NONE',  ( 84.95821491751965500, 48.61611302318477400, -12.69999999999964900 ) ) ;
#119 = DIRECTION ( 'NONE',  ( 0.0000000000000000000, 1.000000000000000000, 0.0000000000000000000 ) ) ;
#120 = DIRECTION ( 'NONE',  ( 0.0000000000000000000, 0.0000000000000000000, 1.000000000000000000 ) ) ;
#121 = DIRECTION ( 'NONE',  ( -1.000000000000000000, -0.0000000000000000000, -0.0000000000000000000 ) ) ;
#122 = APPROVAL ( #197, 'Î´Ö¸¶¨' ) ;
#123 = CARTESIAN_POINT ( 'NONE',  ( 87.95817263180538200, 48.61611302318477400, -12.69999999999998900 ) ) ;
#124 = CALENDAR_DATE ( 2019, 8, 7 ) ;
#125 = PERSON_AND_ORGANIZATION ( #24, #192 ) ;
#126 = MANIFOLD_SOLID_BREP ( 'Ðý×ª1', #249 ) ;
#127 = ORIENTED_EDGE ( 'NONE', *, *, #6, .T. ) ;
#128 = DATE_AND_TIME ( #175, #36 ) ;
#129 = PERSON_AND_ORGANIZATION_ROLE ( 'creator' ) ;
#130 = AXIS2_PLACEMENT_3D ( 'NONE', #200, #316, #143 ) ;
#131 = PRODUCT_DEFINITION_SHAPE ( 'NONE', 'NONE',  #53 ) ;
#132 = DIRECTION ( 'NONE',  ( 1.000000000000000000, 0.0000000000000000000, 0.0000000000000000000 ) ) ;
#133 = APPROVAL_STATUS ( 'not_yet_approved' ) ;
#134 = CARTESIAN_POINT ( 'NONE',  ( 84.95821491751965500, 48.61611302318477400, 0.0000000000000000000 ) ) ;
#135 = APPROVAL_DATE_TIME ( #275, #122 ) ;
#136 = APPROVAL_ROLE ( '' ) ;
#137 = AXIS2_PLACEMENT_3D ( 'NONE', #48, #78, #271 ) ;
#138 = COORDINATED_UNIVERSAL_TIME_OFFSET ( 8, 0, .AHEAD. ) ;
#139 = COORDINATED_UNIVERSAL_TIME_OFFSET ( 8, 0, .AHEAD. ) ;
#140 = ORIENTED_EDGE ( 'NONE', *, *, #27, .F. ) ;
#141 = CALENDAR_DATE ( 2019, 8, 7 ) ;
#142 = APPROVAL_DATE_TIME ( #169, #98 ) ;
#143 = DIRECTION ( 'NONE',  ( 1.000000000000000000, 0.0000000000000000000, 0.0000000000000000000 ) ) ;
#144 = AXIS2_PLACEMENT_3D ( 'NONE', #134, #236, #120 ) ;
#145 = CC_DESIGN_APPROVAL ( #122, ( #242 ) ) ;
#146 = DATE_AND_TIME ( #124, #285 ) ;
#147 = CALENDAR_DATE ( 2019, 8, 7 ) ;
#148 = LOCAL_TIME ( 15, 8, 43.00000000000000000, #336 ) ;
#149 = EDGE_LOOP ( 'NONE', ( #106, #44, #214, #201 ) ) ;
#150 = CARTESIAN_POINT ( 'NONE',  ( 87.95817263180538200, 48.61611302318477400, 0.0000000000000000000 ) ) ;
#151 = COORDINATED_UNIVERSAL_TIME_OFFSET ( 8, 0, .AHEAD. ) ;
#152 = PERSON_AND_ORGANIZATION_ROLE ( 'design_supplier' ) ;
#153 = AXIS2_PLACEMENT_3D ( 'NONE', #263, #292, #13 ) ;
#154 = CARTESIAN_POINT ( 'NONE',  ( 83.37198105152671700, 48.61611302318477400, 12.69999999999982000 ) ) ;
#155 = SPHERICAL_SURFACE ( 'NONE', #326, 733.0695210160517900 ) ;
#156 = CC_DESIGN_PERSON_AND_ORGANIZATION_ASSIGNMENT ( #125, #216, ( #83 ) ) ;
#157 = LINE ( 'NONE', #220, #203 ) ;
#158 = AXIS2_PLACEMENT_3D ( 'NONE', #150, #183, #181 ) ;
#159 = CALENDAR_DATE ( 2019, 8, 7 ) ;
#160 = ORIENTED_EDGE ( 'NONE', *, *, #97, .T. ) ;
#161 = EDGE_CURVE ( 'NONE', #337, #189, #248, .T. ) ;
#162 = CC_DESIGN_APPROVAL ( #98, ( #53 ) ) ;
#163 = APPROVAL_ROLE ( '' ) ;
#164 = CIRCLE ( 'NONE', #137, 12.69999999999964900 ) ;
#165 = PRODUCT_DEFINITION_FORMATION_WITH_SPECIFIED_SOURCE ( 'ÈÎºÎ', '', #113, .NOT_KNOWN. ) ;
#166 = PERSON_AND_ORGANIZATION_ROLE ( 'creator' ) ;
#167 = CC_DESIGN_SECURITY_CLASSIFICATION ( #242, ( #31 ) ) ;
#168 = ORIENTED_EDGE ( 'NONE', *, *, #6, .F. ) ;
#169 = DATE_AND_TIME ( #298, #30 ) ;
#170 = DIRECTION ( 'NONE',  ( -0.0000000000000000000, 0.0000000000000000000, -1.000000000000000000 ) ) ;
#171 = DIRECTION ( 'NONE',  ( 0.0000000000000000000, 0.0000000000000000000, 1.000000000000000000 ) ) ;
#172 = AXIS2_PLACEMENT_3D ( 'NONE', #20, #245, #227 ) ;
#173 = ADVANCED_FACE ( 'NONE', ( #273 ), #243, .T. ) ;
#174 = ORIENTED_EDGE ( 'NONE', *, *, #74, .F. ) ;
#175 = CALENDAR_DATE ( 2019, 8, 7 ) ;
#176 = APPROVAL ( #289, 'Î´Ö¸¶¨' ) ;
#177 = CYLINDRICAL_SURFACE ( 'NONE', #95, 12.69999999999982000 ) ;
#178 = AXIS2_PLACEMENT_3D ( 'NONE', #312, #233, #87 ) ;
#179 = ORIENTED_EDGE ( 'NONE', *, *, #47, .F. ) ;
#180 = CC_DESIGN_PERSON_AND_ORGANIZATION_ASSIGNMENT ( #59, #291, ( #53 ) ) ;
#181 = DIRECTION ( 'NONE',  ( 0.0000000000000000000, 0.0000000000000000000, 1.000000000000000000 ) ) ;
#182 = DIRECTION ( 'NONE',  ( 0.0000000000000000000, 0.0000000000000000000, 1.000000000000000000 ) ) ;
#183 = DIRECTION ( 'NONE',  ( -1.000000000000000000, -0.0000000000000000000, -0.0000000000000000000 ) ) ;
#184 = CARTESIAN_POINT ( 'NONE',  ( 84.95821491751965500, 35.91611302318735700, -1.555301434917317700E-015 ) ) ;
#185 = DESIGN_CONTEXT ( 'detailed design', #238, 'design' ) ;
#186 = AXIS2_PLACEMENT_3D ( 'NONE', #283, #121, #254 ) ;
#187 = FACE_OUTER_BOUND ( 'NONE', #253, .T. ) ;
#188 = CC_DESIGN_APPROVAL ( #221, ( #334 ) ) ;
#189 = VERTEX_POINT ( 'NONE', #26 ) ;
#190 = DATE_TIME_ROLE ( 'creation_date' ) ;
#191 = APPROVAL_PERSON_ORGANIZATION ( #202, #221, #240 ) ;
#192 = ORGANIZATION ( 'Î´Ö¸¶¨', 'Î´Ö¸¶¨', '' ) ;
#193 = SECURITY_CLASSIFICATION_LEVEL ( 'unclassified' ) ;
#194 = APPLICATION_PROTOCOL_DEFINITION ( 'international standard', 'config_control_design', 1994, #238 ) ;
#195 = CC_DESIGN_SECURITY_CLASSIFICATION ( #334, ( #165 ) ) ;
#196 = CARTESIAN_POINT ( 'NONE',  ( 84.84819663180532200, 48.61611302318885900, 0.0000000000000000000 ) ) ;
#197 = APPROVAL_STATUS ( 'not_yet_approved' ) ;
#198 = ORIENTED_EDGE ( 'NONE', *, *, #27, .T. ) ;
#199 = UNCERTAINTY_MEASURE_WITH_UNIT (LENGTH_MEASURE( 1.000000000000000100E-005 ), #28, 'distance_accuracy_value', 'NONE');
#200 = CARTESIAN_POINT ( 'NONE',  ( 817.9177176478571000, 48.61611302318881700, 0.0000000000000000000 ) ) ;
#201 = ORIENTED_EDGE ( 'NONE', *, *, #64, .F. ) ;
#202 = PERSON_AND_ORGANIZATION ( #24, #192 ) ;
#203 = VECTOR ( 'NONE', #266, 1000.000000000000000 ) ;
#204 = CC_DESIGN_DATE_AND_TIME_ASSIGNMENT ( #277, #260, ( #209 ) ) ;
#205 = CARTESIAN_POINT ( 'NONE',  ( -645.0013300988528000, 48.61611302318445400, 0.0000000000000000000 ) ) ;
#206 = PERSON_AND_ORGANIZATION ( #24, #192 ) ;
#207 = CARTESIAN_POINT ( 'NONE',  ( -645.0013300988528000, 48.61611302318445400, 0.0000000000000000000 ) ) ;
#208 = DATE_AND_TIME ( #270, #63 ) ;
#209 = PRODUCT_DEFINITION ( 'Î´Öª', '', #31, #185 ) ;
#210 = SHAPE_DEFINITION_REPRESENTATION ( #45, #85 ) ;
#211 = APPROVAL_DATE_TIME ( #146, #23 ) ;
#212 = APPROVAL_DATE_TIME ( #335, #221 ) ;
#213 = PERSON_AND_ORGANIZATION ( #24, #192 ) ;
#214 = ORIENTED_EDGE ( 'NONE', *, *, #88, .F. ) ;
#215 = PERSON_AND_ORGANIZATION ( #24, #192 ) ;
#216 = PERSON_AND_ORGANIZATION_ROLE ( 'design_owner' ) ;
#217 = DIRECTION ( 'NONE',  ( 0.0000000000000000000, 0.0000000000000000000, 1.000000000000000000 ) ) ;
#218 = AXIS2_PLACEMENT_3D ( 'NONE', #205, #252, #282 ) ;
#219 = APPROVAL_ROLE ( '' ) ;
#220 = CARTESIAN_POINT ( 'NONE',  ( 83.37198105152671700, 48.61611302318477400, -12.69999999999982000 ) ) ;
#221 = APPROVAL ( #241, 'Î´Ö¸¶¨' ) ;
#222 = PERSON_AND_ORGANIZATION ( #24, #192 ) ;
#223 = CARTESIAN_POINT ( 'NONE',  ( 88.06819091751960100, 48.61611302318449600, 0.0000000000000000000 ) ) ;
#224 = ORIENTED_EDGE ( 'NONE', *, *, #74, .T. ) ;
#225 = PERSON_AND_ORGANIZATION ( #24, #192 ) ;
#226 = COORDINATED_UNIVERSAL_TIME_OFFSET ( 8, 0, .AHEAD. ) ;
#227 = DIRECTION ( 'NONE',  ( 0.0000000000000000000, 0.0000000000000000000, 1.000000000000000000 ) ) ;
#228 = CIRCLE ( 'NONE', #34, 12.69999999999998900 ) ;
#229 = CC_DESIGN_PERSON_AND_ORGANIZATION_ASSIGNMENT ( #328, #152, ( #31 ) ) ;
#230 = ADVANCED_FACE ( 'NONE', ( #4 ), #331, .T. ) ;
#231 = VECTOR ( 'NONE', #250, 1000.000000000000000 ) ;
#232 = VERTEX_POINT ( 'NONE', #235 ) ;
#233 = DIRECTION ( 'NONE',  ( 0.0000000000000000000, 1.224646799147353200E-016, -1.000000000000000000 ) ) ;
#234 = CC_DESIGN_PERSON_AND_ORGANIZATION_ASSIGNMENT ( #215, #38, ( #113 ) ) ;
#235 = CARTESIAN_POINT ( 'NONE',  ( 87.95817263180538200, 35.91611302318500500, -1.555301434917071600E-015 ) ) ;
#236 = DIRECTION ( 'NONE',  ( -1.000000000000000000, -0.0000000000000000000, -0.0000000000000000000 ) ) ;
#237 = ORIENTED_EDGE ( 'NONE', *, *, #342, .F. ) ;
#238 = APPLICATION_CONTEXT ( 'configuration controlled 3d designs of mechanical parts and assemblies' ) ;
#239 = APPROVAL_DATE_TIME ( #46, #176 ) ;
#240 = APPROVAL_ROLE ( '' ) ;
#241 = APPROVAL_STATUS ( 'not_yet_approved' ) ;
#242 = SECURITY_CLASSIFICATION ( '', '', #94 ) ;
#243 = SPHERICAL_SURFACE ( 'NONE', #244, 733.0695210163725100 ) ;
#244 = AXIS2_PLACEMENT_3D ( 'NONE', #207, #251, #116 ) ;
#245 = DIRECTION ( 'NONE',  ( -1.000000000000000000, -0.0000000000000000000, -0.0000000000000000000 ) ) ;
#246 = CC_DESIGN_DATE_AND_TIME_ASSIGNMENT ( #128, #190, ( #53 ) ) ;
#247 = ORIENTED_EDGE ( 'NONE', *, *, #52, .F. ) ;
#248 = CIRCLE ( 'NONE', #158, 12.69999999999998900 ) ;
#249 = CLOSED_SHELL ( 'NONE', ( #80, #173, #42, #230, #272, #340 ) ) ;
#250 = DIRECTION ( 'NONE',  ( -1.000000000000000000, -0.0000000000000000000, -0.0000000000000000000 ) ) ;
#251 = DIRECTION ( 'NONE',  ( -0.0000000000000000000, 0.0000000000000000000, -1.000000000000000000 ) ) ;
#252 = DIRECTION ( 'NONE',  ( -0.0000000000000000000, 0.0000000000000000000, 1.000000000000000000 ) ) ;
#253 = EDGE_LOOP ( 'NONE', ( #237, #73, #62, #96, #29, #140 ) ) ;
#254 = DIRECTION ( 'NONE',  ( 0.0000000000000000000, 0.0000000000000000000, 1.000000000000000000 ) ) ;
#255 = PERSON_AND_ORGANIZATION ( #24, #192 ) ;
#256 = PERSON_AND_ORGANIZATION_ROLE ( 'classification_officer' ) ;
#257 = CIRCLE ( 'NONE', #144, 12.69999999999964900 ) ;
#258 = CC_DESIGN_APPROVAL ( #23, ( #31 ) ) ;
#259 = EDGE_LOOP ( 'NONE', ( #168, #35, #224, #17 ) ) ;
#260 = DATE_TIME_ROLE ( 'creation_date' ) ;
#261 = SPHERICAL_SURFACE ( 'NONE', #284, 733.0695210163725100 ) ;
#262 = DIRECTION ( 'NONE',  ( 1.000000000000000000, 0.0000000000000000000, 0.0000000000000000000 ) ) ;
#263 = CARTESIAN_POINT ( 'NONE',  ( 817.9177176478571000, 48.61611302318881700, 0.0000000000000000000 ) ) ;
#264 = AXIS2_PLACEMENT_3D ( 'NONE', #86, #279, #299 ) ;
#265 = APPLICATION_CONTEXT ( 'configuration controlled 3d designs of mechanical parts and assemblies' ) ;
#266 = DIRECTION ( 'NONE',  ( -1.000000000000000000, -0.0000000000000000000, -0.0000000000000000000 ) ) ;
#267 = APPROVAL_DATE_TIME ( #318, #111 ) ;
#268 = EDGE_LOOP ( 'NONE', ( #99, #198, #127, #179 ) ) ;
#269 = DIRECTION ( 'NONE',  ( 0.0000000000000000000, 0.0000000000000000000, 1.000000000000000000 ) ) ;
#270 = CALENDAR_DATE ( 2019, 8, 7 ) ;
#271 = DIRECTION ( 'NONE',  ( 0.0000000000000000000, 0.0000000000000000000, 1.000000000000000000 ) ) ;
#272 = ADVANCED_FACE ( 'NONE', ( #302 ), #261, .T. ) ;
#273 = FACE_OUTER_BOUND ( 'NONE', #149, .T. ) ;
#274 = COORDINATED_UNIVERSAL_TIME_OFFSET ( 8, 0, .AHEAD. ) ;
#275 = DATE_AND_TIME ( #344, #57 ) ;
#276 = CC_DESIGN_DATE_AND_TIME_ASSIGNMENT ( #51, #104, ( #242 ) ) ;
#277 = DATE_AND_TIME ( #159, #148 ) ;
#278 = EDGE_CURVE ( 'NONE', #294, #286, #32, .T. ) ;
#279 = DIRECTION ( 'NONE',  ( -0.0000000000000000000, 0.0000000000000000000, -1.000000000000000000 ) ) ;
#280 =( NAMED_UNIT ( * ) SI_UNIT ( $, .STERADIAN. ) SOLID_ANGLE_UNIT ( ) );
#281 = DIRECTION ( 'NONE',  ( -0.0000000000000000000, 0.0000000000000000000, -1.000000000000000000 ) ) ;
#282 = DIRECTION ( 'NONE',  ( 1.000000000000000000, 0.0000000000000000000, 0.0000000000000000000 ) ) ;
#283 = CARTESIAN_POINT ( 'NONE',  ( 84.95821491751965500, 48.61611302318477400, 0.0000000000000000000 ) ) ;
#284 = AXIS2_PLACEMENT_3D ( 'NONE', #301, #281, #119 ) ;
#285 = LOCAL_TIME ( 15, 8, 43.00000000000000000, #139 ) ;
#286 = VERTEX_POINT ( 'NONE', #300 ) ;
#287 = PERSON_AND_ORGANIZATION ( #24, #192 ) ;
#288 = APPLICATION_PROTOCOL_DEFINITION ( 'international standard', 'config_control_design', 1994, #265 ) ;
#289 = APPROVAL_STATUS ( 'not_yet_approved' ) ;
#290 = CIRCLE ( 'NONE', #130, 733.0695210160517900 ) ;
#291 = PERSON_AND_ORGANIZATION_ROLE ( 'creator' ) ;
#292 = DIRECTION ( 'NONE',  ( 0.0000000000000000000, 1.224646799147353200E-016, -1.000000000000000000 ) ) ;
#293 = CC_DESIGN_APPROVAL ( #176, ( #165 ) ) ;
#294 = VERTEX_POINT ( 'NONE', #184 ) ;
#295 = CARTESIAN_POINT ( 'NONE',  ( 817.9177176478571000, 48.61611302318881700, 0.0000000000000000000 ) ) ;
#296 = CARTESIAN_POINT ( 'NONE',  ( 84.95821491751965500, 48.61611302318477400, 0.0000000000000000000 ) ) ;
#297 = VERTEX_POINT ( 'NONE', #196 ) ;
#298 = CALENDAR_DATE ( 2019, 8, 7 ) ;
#299 = DIRECTION ( 'NONE',  ( 0.0000000000000000000, 1.000000000000000000, 0.0000000000000000000 ) ) ;
#300 = CARTESIAN_POINT ( 'NONE',  ( 84.95821491751965500, 48.61611302318477400, 12.69999999999964900 ) ) ;
#301 = CARTESIAN_POINT ( 'NONE',  ( -645.0013300988528000, 48.61611302318445400, 0.0000000000000000000 ) ) ;
#302 = FACE_OUTER_BOUND ( 'NONE', #320, .T. ) ;
#303 = CC_DESIGN_PERSON_AND_ORGANIZATION_ASSIGNMENT ( #287, #311, ( #165 ) ) ;
#304 = DIRECTION ( 'NONE',  ( 0.0000000000000000000, 0.0000000000000000000, 1.000000000000000000 ) ) ;
#305 = ORIENTED_EDGE ( 'NONE', *, *, #107, .F. ) ;
#306 = DESIGN_CONTEXT ( 'detailed design', #265, 'design' ) ;
#307 = EDGE_CURVE ( 'NONE', #33, #232, #93, .T. ) ;
#308 = APPLICATION_CONTEXT ( 'configuration controlled 3d designs of mechanical parts and assemblies' ) ;
#309 = PERSON_AND_ORGANIZATION ( #24, #192 ) ;
#310 = PERSON_AND_ORGANIZATION_ROLE ( 'classification_officer' ) ;
#311 = PERSON_AND_ORGANIZATION_ROLE ( 'design_supplier' ) ;
#312 = CARTESIAN_POINT ( 'NONE',  ( -645.0013300988528000, 48.61611302318445400, 0.0000000000000000000 ) ) ;
#313 = AXIS2_PLACEMENT_3D ( 'NONE', #322, #89, #182 ) ;
#314 = VERTEX_POINT ( 'NONE', #123 ) ;
#315 = EDGE_CURVE ( 'NONE', #56, #90, #257, .T. ) ;
#316 = DIRECTION ( 'NONE',  ( -0.0000000000000000000, 0.0000000000000000000, 1.000000000000000000 ) ) ;
#317 = CARTESIAN_POINT ( 'NONE',  ( 83.37198105152671700, 48.61611302318477400, 0.0000000000000000000 ) ) ;
#318 = DATE_AND_TIME ( #115, #55 ) ;
#319 = DIRECTION ( 'NONE',  ( -1.000000000000000000, -0.0000000000000000000, -0.0000000000000000000 ) ) ;
#320 = EDGE_LOOP ( 'NONE', ( #8, #160, #25, #247 ) ) ;
#321 = COORDINATED_UNIVERSAL_TIME_OFFSET ( 8, 0, .AHEAD. ) ;
#322 = CARTESIAN_POINT ( 'NONE',  ( 87.95817263180538200, 48.61611302318477400, 0.0000000000000000000 ) ) ;
#323 = LOCAL_TIME ( 15, 8, 43.00000000000000000, #109 ) ;
#324 = PERSON_AND_ORGANIZATION_ROLE ( 'creator' ) ;
#325 =( GEOMETRIC_REPRESENTATION_CONTEXT ( 3 ) GLOBAL_UNCERTAINTY_ASSIGNED_CONTEXT ( ( #199 ) ) GLOBAL_UNIT_ASSIGNED_CONTEXT ( ( #28, #1, #280 ) ) REPRESENTATION_CONTEXT ( 'NONE', 'WORKASPACE' ) );
#326 = AXIS2_PLACEMENT_3D ( 'NONE', #295, #170, #108 ) ;
#327 = AXIS2_PLACEMENT_3D ( 'NONE', #16, #304, #132 ) ;
#328 = PERSON_AND_ORGANIZATION ( #24, #192 ) ;
#329 = EDGE_LOOP ( 'NONE', ( #5, #343, #103, #174, #305, #117 ) ) ;
#330 = PERSON_AND_ORGANIZATION ( #24, #192 ) ;
#331 = SPHERICAL_SURFACE ( 'NONE', #264, 733.0695210160517900 ) ;
#332 = CARTESIAN_POINT ( 'NONE',  ( 87.95817263180538200, 48.61611302318477400, 12.69999999999998900 ) ) ;
#333 = DATE_TIME_ROLE ( 'classification_date' ) ;
#334 = SECURITY_CLASSIFICATION ( '', '', #193 ) ;
#335 = DATE_AND_TIME ( #147, #323 ) ;
#336 = COORDINATED_UNIVERSAL_TIME_OFFSET ( 8, 0, .AHEAD. ) ;
#337 = VERTEX_POINT ( 'NONE', #332 ) ;
#338 = CARTESIAN_POINT ( 'NONE',  ( 87.95817263180538200, 48.61611302318477400, 0.0000000000000000000 ) ) ;
#339 = COORDINATED_UNIVERSAL_TIME_OFFSET ( 8, 0, .AHEAD. ) ;
#340 = ADVANCED_FACE ( 'NONE', ( #187 ), #14, .T. ) ;
#341 = CIRCLE ( 'NONE', #172, 12.69999999999998900 ) ;
#342 = EDGE_CURVE ( 'NONE', #314, #90, #157, .T. ) ;
#343 = ORIENTED_EDGE ( 'NONE', *, *, #342, .T. ) ;
#344 = CALENDAR_DATE ( 2019, 8, 7 ) ;
#345 = APPROVAL_PERSON_ORGANIZATION ( #110, #98, #219 ) ;
ENDSEC;
END-ISO-10303-21;
