ISO-10303-21;
HEADER;
FILE_DESCRIPTION (( 'STEP AP214' ),
    '1' );
FILE_NAME ('120023.STEP',
    '2019-06-17T01:13:25',
    ( '' ),
    ( '' ),
    'SwSTEP 2.0',
    'SolidWorks 2016',
    '' );
FILE_SCHEMA (( 'AUTOMOTIVE_DESIGN' ));
ENDSEC;

DATA;
#1 = ORIENTED_EDGE ( 'NONE', *, *, #139, .T. ) ;
#2 = DIRECTION ( 'NONE',  ( -1.000000000000000000, -0.0000000000000000000, -0.0000000000000000000 ) ) ;
#3 = CYLINDRICAL_SURFACE ( 'NONE', #40, 8.000000000000000000 ) ;
#4 = DIRECTION ( 'NONE',  ( 0.0000000000000000000, 0.0000000000000000000, 1.000000000000000000 ) ) ;
#5 = PRESENTATION_STYLE_ASSIGNMENT (( #135 ) ) ;
#6 =( GEOMETRIC_REPRESENTATION_CONTEXT ( 3 ) GLOBAL_UNCERTAINTY_ASSIGNED_CONTEXT ( ( #9 ) ) GLOBAL_UNIT_ASSIGNED_CONTEXT ( ( #123, #104, #93 ) ) REPRESENTATION_CONTEXT ( 'NONE', 'WORKASPACE' ) );
#7 = ORIENTED_EDGE ( 'NONE', *, *, #96, .T. ) ;
#8 = VERTEX_POINT ( 'NONE', #129 ) ;
#9 = UNCERTAINTY_MEASURE_WITH_UNIT (LENGTH_MEASURE( 1.000000000000000100E-005 ), #123, 'distance_accuracy_value', 'NONE');
#10 = EDGE_CURVE ( 'NONE', #41, #157, #170, .T. ) ;
#11 = DIRECTION ( 'NONE',  ( -1.000000000000000000, -0.0000000000000000000, -0.0000000000000000000 ) ) ;
#12 = ORIENTED_EDGE ( 'NONE', *, *, #168, .T. ) ;
#13 = DIRECTION ( 'NONE',  ( 0.0000000000000000000, 0.0000000000000000000, 1.000000000000000000 ) ) ;
#14 = DIRECTION ( 'NONE',  ( 1.000000000000000000, 0.0000000000000000000, 0.0000000000000000000 ) ) ;
#15 = CIRCLE ( 'NONE', #37, 7.999999999999996400 ) ;
#16 = AXIS2_PLACEMENT_3D ( 'NONE', #62, #2, #4 ) ;
#17 = DIRECTION ( 'NONE',  ( -1.000000000000000000, -0.0000000000000000000, -0.0000000000000000000 ) ) ;
#18 = CARTESIAN_POINT ( 'NONE',  ( 44.31915269315436500, 26.08904114919495900, 0.0000000000000000000 ) ) ;
#19 = DIRECTION ( 'NONE',  ( 0.0000000000000000000, 0.0000000000000000000, -1.000000000000000000 ) ) ;
#20 = ORIENTED_EDGE ( 'NONE', *, *, #43, .F. ) ;
#21 = EDGE_CURVE ( 'NONE', #116, #127, #140, .T. ) ;
#22 =( LENGTH_UNIT ( ) NAMED_UNIT ( * ) SI_UNIT ( .MILLI., .METRE. ) );
#23 = SURFACE_SIDE_STYLE ('',( #182 ) ) ;
#24 = ADVANCED_FACE ( 'NONE', ( #68 ), #3, .T. ) ;
#25 = EDGE_CURVE ( 'NONE', #8, #152, #15, .T. ) ;
#26 = EDGE_CURVE ( 'NONE', #8, #80, #110, .T. ) ;
#27 = CARTESIAN_POINT ( 'NONE',  ( 47.08873166137506400, 26.08904114919495900, 0.0000000000000000000 ) ) ;
#28 =( GEOMETRIC_REPRESENTATION_CONTEXT ( 3 ) GLOBAL_UNCERTAINTY_ASSIGNED_CONTEXT ( ( #85 ) ) GLOBAL_UNIT_ASSIGNED_CONTEXT ( ( #50, #31, #137 ) ) REPRESENTATION_CONTEXT ( 'NONE', 'WORKASPACE' ) );
#29 = ORIENTED_EDGE ( 'NONE', *, *, #139, .F. ) ;
#30 = DIRECTION ( 'NONE',  ( 0.0000000000000000000, 1.000000000000000000, 1.224646799147353200E-016 ) ) ;
#31 =( NAMED_UNIT ( * ) PLANE_ANGLE_UNIT ( ) SI_UNIT ( $, .RADIAN. ) );
#32 = PRODUCT_DEFINITION ( 'Î´Öª', '', #46, #94 ) ;
#33 = DIRECTION ( 'NONE',  ( 0.0000000000000000000, 0.0000000000000000000, 1.000000000000000000 ) ) ;
#34 = DIRECTION ( 'NONE',  ( 0.0000000000000000000, 0.0000000000000000000, -1.000000000000000000 ) ) ;
#35 = CYLINDRICAL_SURFACE ( 'NONE', #16, 8.000000000000000000 ) ;
#36 = EDGE_LOOP ( 'NONE', ( #48, #183, #159, #29 ) ) ;
#37 = AXIS2_PLACEMENT_3D ( 'NONE', #27, #58, #185 ) ;
#38 = PRODUCT_CONTEXT ( 'NONE', #163, 'mechanical' ) ;
#39 = CIRCLE ( 'NONE', #120, 25.84000000000000300 ) ;
#40 = AXIS2_PLACEMENT_3D ( 'NONE', #169, #59, #44 ) ;
#41 = VERTEX_POINT ( 'NONE', #144 ) ;
#42 = SPHERICAL_SURFACE ( 'NONE', #66, 25.84000000000000300 ) ;
#43 = EDGE_CURVE ( 'NONE', #116, #80, #39, .T. ) ;
#44 = DIRECTION ( 'NONE',  ( 0.0000000000000000000, 0.0000000000000000000, 1.000000000000000000 ) ) ;
#45 = CARTESIAN_POINT ( 'NONE',  ( 47.08873166137506400, 26.08904114919495900, 0.0000000000000000000 ) ) ;
#46 = PRODUCT_DEFINITION_FORMATION_WITH_SPECIFIED_SOURCE ( 'ÈÎºÎ', '', #95, .NOT_KNOWN. ) ;
#47 = CARTESIAN_POINT ( 'NONE',  ( 47.08873166137506400, 26.08904114919495900, 0.0000000000000000000 ) ) ;
#48 = ORIENTED_EDGE ( 'NONE', *, *, #21, .F. ) ;
#49 = UNCERTAINTY_MEASURE_WITH_UNIT (LENGTH_MEASURE( 1.000000000000000100E-005 ), #22, 'distance_accuracy_value', 'NONE');
#50 =( LENGTH_UNIT ( ) NAMED_UNIT ( * ) SI_UNIT ( .MILLI., .METRE. ) );
#51 = LINE ( 'NONE', #175, #71 ) ;
#52 = ORIENTED_EDGE ( 'NONE', *, *, #21, .T. ) ;
#53 = AXIS2_PLACEMENT_3D ( 'NONE', #114, #19, #102 ) ;
#54 = ORIENTED_EDGE ( 'NONE', *, *, #184, .T. ) ;
#55 = AXIS2_PLACEMENT_3D ( 'NONE', #45, #75, #145 ) ;
#56 = PRODUCT_DEFINITION_SHAPE ( 'NONE', 'NONE',  #32 ) ;
#57 = CLOSED_SHELL ( 'NONE', ( #92, #72, #105, #24, #165 ) ) ;
#58 = DIRECTION ( 'NONE',  ( -1.000000000000000000, -0.0000000000000000000, -0.0000000000000000000 ) ) ;
#59 = DIRECTION ( 'NONE',  ( -1.000000000000000000, -0.0000000000000000000, -0.0000000000000000000 ) ) ;
#60 = CARTESIAN_POINT ( 'NONE',  ( 44.31915269315436500, 26.08904114919495900, 0.0000000000000000000 ) ) ;
#61 = EDGE_LOOP ( 'NONE', ( #97, #7, #125, #146, #1 ) ) ;
#62 = CARTESIAN_POINT ( 'NONE',  ( 42.44986111413682300, 26.08904114919495900, 0.0000000000000000000 ) ) ;
#63 = ADVANCED_BREP_SHAPE_REPRESENTATION ( '120023', ( #119, #106 ), #6 ) ;
#64 = DIRECTION ( 'NONE',  ( 0.0000000000000000000, 1.000000000000000000, 0.0000000000000000000 ) ) ;
#65 = DIRECTION ( 'NONE',  ( 0.0000000000000000000, 0.0000000000000000000, 1.000000000000000000 ) ) ;
#66 = AXIS2_PLACEMENT_3D ( 'NONE', #171, #34, #64 ) ;
#67 = DIRECTION ( 'NONE',  ( -1.000000000000000000, -0.0000000000000000000, -0.0000000000000000000 ) ) ;
#68 = FACE_OUTER_BOUND ( 'NONE', #138, .T. ) ;
#69 =( NAMED_UNIT ( * ) PLANE_ANGLE_UNIT ( ) SI_UNIT ( $, .RADIAN. ) );
#70 = ORIENTED_EDGE ( 'NONE', *, *, #26, .T. ) ;
#71 = VECTOR ( 'NONE', #115, 1000.000000000000000 ) ;
#72 = ADVANCED_FACE ( 'NONE', ( #81 ), #42, .F. ) ;
#73 = ORIENTED_EDGE ( 'NONE', *, *, #96, .F. ) ;
#74 = AXIS2_PLACEMENT_3D ( 'NONE', #98, #11, #86 ) ;
#75 = DIRECTION ( 'NONE',  ( -1.000000000000000000, -0.0000000000000000000, -0.0000000000000000000 ) ) ;
#76 = SURFACE_STYLE_FILL_AREA ( #87 ) ;
#77 = STYLED_ITEM ( 'NONE', ( #154 ), #63 ) ;
#78 = DIRECTION ( 'NONE',  ( 0.0000000000000000000, 0.0000000000000000000, -1.000000000000000000 ) ) ;
#79 = FACE_OUTER_BOUND ( 'NONE', #61, .T. ) ;
#80 = VERTEX_POINT ( 'NONE', #134 ) ;
#81 = FACE_OUTER_BOUND ( 'NONE', #36, .T. ) ;
#82 = COLOUR_RGB ( '',1.000000000000000000, 1.000000000000000000, 1.000000000000000000 ) ;
#83 = ORIENTED_EDGE ( 'NONE', *, *, #180, .F. ) ;
#84 = AXIS2_PLACEMENT_3D ( 'NONE', #101, #88, #14 ) ;
#85 = UNCERTAINTY_MEASURE_WITH_UNIT (LENGTH_MEASURE( 1.000000000000000100E-005 ), #50, 'distance_accuracy_value', 'NONE');
#86 = DIRECTION ( 'NONE',  ( 0.0000000000000000000, 0.0000000000000000000, 1.000000000000000000 ) ) ;
#87 = FILL_AREA_STYLE ('',( #100 ) ) ;
#88 = DIRECTION ( 'NONE',  ( 0.0000000000000000000, 0.0000000000000000000, 1.000000000000000000 ) ) ;
#89 = CIRCLE ( 'NONE', #158, 8.000000000000003600 ) ;
#90 = STYLED_ITEM ( 'NONE', ( #5 ), #119 ) ;
#91 = CARTESIAN_POINT ( 'NONE',  ( 44.31915269315436500, 26.08904114919495900, -8.000000000000003600 ) ) ;
#92 = ADVANCED_FACE ( 'NONE', ( #79 ), #35, .T. ) ;
#93 =( NAMED_UNIT ( * ) SI_UNIT ( $, .STERADIAN. ) SOLID_ANGLE_UNIT ( ) );
#94 = PRODUCT_DEFINITION_CONTEXT ( 'detailed design', #178, 'design' ) ;
#95 = PRODUCT ( '120023', '120023', '', ( #38 ) ) ;
#96 = EDGE_CURVE ( 'NONE', #152, #157, #51, .T. ) ;
#97 = ORIENTED_EDGE ( 'NONE', *, *, #25, .T. ) ;
#98 = CARTESIAN_POINT ( 'NONE',  ( 44.31915269315436500, 26.08904114919495900, 0.0000000000000000000 ) ) ;
#99 = DIRECTION ( 'NONE',  ( 0.0000000000000000000, 1.224646799147353200E-016, -1.000000000000000000 ) ) ;
#100 = FILL_AREA_STYLE_COLOUR ( '', #136 ) ;
#101 = CARTESIAN_POINT ( 'NONE',  ( 71.65915290318530100, 26.08904114919495500, 0.0000000000000000000 ) ) ;
#102 = DIRECTION ( 'NONE',  ( 0.0000000000000000000, 1.000000000000000000, 0.0000000000000000000 ) ) ;
#103 = AXIS2_PLACEMENT_3D ( 'NONE', #47, #149, #13 ) ;
#104 =( NAMED_UNIT ( * ) PLANE_ANGLE_UNIT ( ) SI_UNIT ( $, .RADIAN. ) );
#105 = ADVANCED_FACE ( 'NONE', ( #167 ), #108, .F. ) ;
#106 = AXIS2_PLACEMENT_3D ( 'NONE', #133, #176, #177 ) ;
#107 = PRESENTATION_LAYER_ASSIGNMENT (  '', '', ( #90 ) ) ;
#108 = SPHERICAL_SURFACE ( 'NONE', #53, 25.84000000000000300 ) ;
#109 = EDGE_LOOP ( 'NONE', ( #112, #128 ) ) ;
#110 = CIRCLE ( 'NONE', #84, 25.84000000000000300 ) ;
#111 = CIRCLE ( 'NONE', #156, 7.999999999999996400 ) ;
#112 = ORIENTED_EDGE ( 'NONE', *, *, #10, .T. ) ;
#113 = FILL_AREA_STYLE_COLOUR ( '', #82 ) ;
#114 = CARTESIAN_POINT ( 'NONE',  ( 71.65915290318530100, 26.08904114919495500, 0.0000000000000000000 ) ) ;
#115 = DIRECTION ( 'NONE',  ( -1.000000000000000000, -0.0000000000000000000, -0.0000000000000000000 ) ) ;
#116 = VERTEX_POINT ( 'NONE', #118 ) ;
#117 = SURFACE_SIDE_STYLE ('',( #76 ) ) ;
#118 = CARTESIAN_POINT ( 'NONE',  ( 47.08873166137506400, 18.08904114919496600, -9.797174393178815800E-016 ) ) ;
#119 = MANIFOLD_SOLID_BREP ( 'Ðý×ª1', #57 ) ;
#120 = AXIS2_PLACEMENT_3D ( 'NONE', #174, #99, #30 ) ;
#121 = APPLICATION_PROTOCOL_DEFINITION ( 'draft international standard', 'automotive_design', 1998, #163 ) ;
#122 = FILL_AREA_STYLE ('',( #113 ) ) ;
#123 =( LENGTH_UNIT ( ) NAMED_UNIT ( * ) SI_UNIT ( .MILLI., .METRE. ) );
#124 = SURFACE_STYLE_USAGE ( .BOTH. , #23 ) ;
#125 = ORIENTED_EDGE ( 'NONE', *, *, #10, .F. ) ;
#126 = SHAPE_DEFINITION_REPRESENTATION ( #56, #63 ) ;
#127 = VERTEX_POINT ( 'NONE', #162 ) ;
#128 = ORIENTED_EDGE ( 'NONE', *, *, #180, .T. ) ;
#129 = CARTESIAN_POINT ( 'NONE',  ( 47.08873166137506400, 34.08904114919494800, 0.0000000000000000000 ) ) ;
#130 = VECTOR ( 'NONE', #67, 1000.000000000000000 ) ;
#131 = CARTESIAN_POINT ( 'NONE',  ( 42.44986111413682300, 26.08904114919495900, 8.000000000000000000 ) ) ;
#132 = ORIENTED_EDGE ( 'NONE', *, *, #25, .F. ) ;
#133 = CARTESIAN_POINT ( 'NONE',  ( 0.0000000000000000000, 0.0000000000000000000, 0.0000000000000000000 ) ) ;
#134 = CARTESIAN_POINT ( 'NONE',  ( 45.81915290318530500, 26.08904114919495500, 0.0000000000000000000 ) ) ;
#135 = SURFACE_STYLE_USAGE ( .BOTH. , #117 ) ;
#136 = COLOUR_RGB ( '',1.000000000000000000, 1.000000000000000000, 1.000000000000000000 ) ;
#137 =( NAMED_UNIT ( * ) SI_UNIT ( $, .STERADIAN. ) SOLID_ANGLE_UNIT ( ) );
#138 = EDGE_LOOP ( 'NONE', ( #73, #54, #52, #12, #83 ) ) ;
#139 = EDGE_CURVE ( 'NONE', #127, #8, #141, .T. ) ;
#140 = CIRCLE ( 'NONE', #55, 7.999999999999996400 ) ;
#141 = CIRCLE ( 'NONE', #103, 7.999999999999996400 ) ;
#142 = MECHANICAL_DESIGN_GEOMETRIC_PRESENTATION_REPRESENTATION (  '', ( #90 ), #28 ) ;
#143 = MECHANICAL_DESIGN_GEOMETRIC_PRESENTATION_REPRESENTATION (  '', ( #77 ), #173 ) ;
#144 = CARTESIAN_POINT ( 'NONE',  ( 44.31915269315436500, 26.08904114919495900, 8.000000000000003600 ) ) ;
#145 = DIRECTION ( 'NONE',  ( 0.0000000000000000000, 0.0000000000000000000, 1.000000000000000000 ) ) ;
#146 = ORIENTED_EDGE ( 'NONE', *, *, #168, .F. ) ;
#147 = DIRECTION ( 'NONE',  ( -1.000000000000000000, -0.0000000000000000000, -0.0000000000000000000 ) ) ;
#148 = PLANE ( 'NONE',  #166 ) ;
#149 = DIRECTION ( 'NONE',  ( -1.000000000000000000, -0.0000000000000000000, -0.0000000000000000000 ) ) ;
#150 = LINE ( 'NONE', #131, #130 ) ;
#151 = APPLICATION_PROTOCOL_DEFINITION ( 'draft international standard', 'automotive_design', 1998, #178 ) ;
#152 = VERTEX_POINT ( 'NONE', #161 ) ;
#153 =( NAMED_UNIT ( * ) SI_UNIT ( $, .STERADIAN. ) SOLID_ANGLE_UNIT ( ) );
#154 = PRESENTATION_STYLE_ASSIGNMENT (( #124 ) ) ;
#155 = EDGE_LOOP ( 'NONE', ( #20, #164, #132, #70 ) ) ;
#156 = AXIS2_PLACEMENT_3D ( 'NONE', #160, #17, #33 ) ;
#157 = VERTEX_POINT ( 'NONE', #91 ) ;
#158 = AXIS2_PLACEMENT_3D ( 'NONE', #18, #147, #65 ) ;
#159 = ORIENTED_EDGE ( 'NONE', *, *, #26, .F. ) ;
#160 = CARTESIAN_POINT ( 'NONE',  ( 47.08873166137506400, 26.08904114919495900, 0.0000000000000000000 ) ) ;
#161 = CARTESIAN_POINT ( 'NONE',  ( 47.08873166137506400, 26.08904114919495900, -7.999999999999996400 ) ) ;
#162 = CARTESIAN_POINT ( 'NONE',  ( 47.08873166137506400, 26.08904114919495900, 7.999999999999996400 ) ) ;
#163 = APPLICATION_CONTEXT ( 'automotive_design' ) ;
#164 = ORIENTED_EDGE ( 'NONE', *, *, #184, .F. ) ;
#165 = ADVANCED_FACE ( 'NONE', ( #179 ), #148, .F. ) ;
#166 = AXIS2_PLACEMENT_3D ( 'NONE', #60, #172, #78 ) ;
#167 = FACE_OUTER_BOUND ( 'NONE', #155, .T. ) ;
#168 = EDGE_CURVE ( 'NONE', #127, #41, #150, .T. ) ;
#169 = CARTESIAN_POINT ( 'NONE',  ( 42.44986111413682300, 26.08904114919495900, 0.0000000000000000000 ) ) ;
#170 = CIRCLE ( 'NONE', #74, 8.000000000000003600 ) ;
#171 = CARTESIAN_POINT ( 'NONE',  ( 71.65915290318530100, 26.08904114919495500, 0.0000000000000000000 ) ) ;
#172 = DIRECTION ( 'NONE',  ( 1.000000000000000000, 0.0000000000000000000, 0.0000000000000000000 ) ) ;
#173 =( GEOMETRIC_REPRESENTATION_CONTEXT ( 3 ) GLOBAL_UNCERTAINTY_ASSIGNED_CONTEXT ( ( #49 ) ) GLOBAL_UNIT_ASSIGNED_CONTEXT ( ( #22, #69, #153 ) ) REPRESENTATION_CONTEXT ( 'NONE', 'WORKASPACE' ) );
#174 = CARTESIAN_POINT ( 'NONE',  ( 71.65915290318530100, 26.08904114919495500, 0.0000000000000000000 ) ) ;
#175 = CARTESIAN_POINT ( 'NONE',  ( 42.44986111413682300, 26.08904114919495900, -8.000000000000000000 ) ) ;
#176 = DIRECTION ( 'NONE',  ( 0.0000000000000000000, 0.0000000000000000000, 1.000000000000000000 ) ) ;
#177 = DIRECTION ( 'NONE',  ( 1.000000000000000000, 0.0000000000000000000, 0.0000000000000000000 ) ) ;
#178 = APPLICATION_CONTEXT ( 'automotive_design' ) ;
#179 = FACE_OUTER_BOUND ( 'NONE', #109, .T. ) ;
#180 = EDGE_CURVE ( 'NONE', #157, #41, #89, .T. ) ;
#181 = PRESENTATION_LAYER_ASSIGNMENT (  '', '', ( #77 ) ) ;
#182 = SURFACE_STYLE_FILL_AREA ( #122 ) ;
#183 = ORIENTED_EDGE ( 'NONE', *, *, #43, .T. ) ;
#184 = EDGE_CURVE ( 'NONE', #152, #116, #111, .T. ) ;
#185 = DIRECTION ( 'NONE',  ( 0.0000000000000000000, 0.0000000000000000000, 1.000000000000000000 ) ) ;
#186 = PRODUCT_RELATED_PRODUCT_CATEGORY ( 'part', '', ( #95 ) ) ;
ENDSEC;
END-ISO-10303-21;
