ISO-10303-21;
HEADER;
FILE_DESCRIPTION (( 'STEP AP214' ),
    '1' );
FILE_NAME ('120028.STEP',
    '2019-06-17T01:40:44',
    ( '' ),
    ( '' ),
    'SwSTEP 2.0',
    'SolidWorks 2016',
    '' );
FILE_SCHEMA (( 'AUTOMOTIVE_DESIGN' ));
ENDSEC;

DATA;
#1 = DIRECTION ( 'NONE',  ( -1.000000000000000000, -0.0000000000000000000, -0.0000000000000000000 ) ) ;
#2 = APPLICATION_CONTEXT ( 'automotive_design' ) ;
#3 = CIRCLE ( 'NONE', #82, 25.84800000000000300 ) ;
#4 = EDGE_LOOP ( 'NONE', ( #8, #61, #16, #29 ) ) ;
#5 = EDGE_CURVE ( 'NONE', #72, #162, #159, .T. ) ;
#6 = ADVANCED_FACE ( 'NONE', ( #158 ), #46, .T. ) ;
#7 = FACE_OUTER_BOUND ( 'NONE', #21, .T. ) ;
#8 = ORIENTED_EDGE ( 'NONE', *, *, #119, .F. ) ;
#9 = UNCERTAINTY_MEASURE_WITH_UNIT (LENGTH_MEASURE( 1.000000000000000100E-005 ), #97, 'distance_accuracy_value', 'NONE');
#10 = CARTESIAN_POINT ( 'NONE',  ( 46.02576592330447600, 26.08904114919496600, -10.00000000000000500 ) ) ;
#11 = EDGE_CURVE ( 'NONE', #34, #95, #3, .T. ) ;
#12 = DIRECTION ( 'NONE',  ( 0.0000000000000000000, 0.0000000000000000000, -1.000000000000000000 ) ) ;
#13 = DIRECTION ( 'NONE',  ( 0.0000000000000000000, -1.000000000000000000, -1.224646799147353200E-016 ) ) ;
#14 = DIRECTION ( 'NONE',  ( -1.000000000000000000, -0.0000000000000000000, -0.0000000000000000000 ) ) ;
#15 = CARTESIAN_POINT ( 'NONE',  ( 0.0000000000000000000, 0.0000000000000000000, 0.0000000000000000000 ) ) ;
#16 = ORIENTED_EDGE ( 'NONE', *, *, #11, .F. ) ;
#17 = AXIS2_PLACEMENT_3D ( 'NONE', #66, #186, #47 ) ;
#18 = DIRECTION ( 'NONE',  ( 0.0000000000000000000, 0.0000000000000000000, 1.000000000000000000 ) ) ;
#19 = DIRECTION ( 'NONE',  ( 0.0000000000000000000, 0.0000000000000000000, 1.000000000000000000 ) ) ;
#20 = FACE_OUTER_BOUND ( 'NONE', #4, .T. ) ;
#21 = EDGE_LOOP ( 'NONE', ( #111, #130 ) ) ;
#22 = PRESENTATION_LAYER_ASSIGNMENT (  '', '', ( #102 ) ) ;
#23 = CARTESIAN_POINT ( 'NONE',  ( 46.02576592330447600, 26.08904114919496600, 0.0000000000000000000 ) ) ;
#24 = SURFACE_SIDE_STYLE ('',( #55 ) ) ;
#25 = CARTESIAN_POINT ( 'NONE',  ( 75.84570528267210000, 26.08904114919496600, 0.0000000000000000000 ) ) ;
#26 = CARTESIAN_POINT ( 'NONE',  ( 46.02576592330447600, 26.08904114919496600, 10.00000000000000500 ) ) ;
#27 =( NAMED_UNIT ( * ) SI_UNIT ( $, .STERADIAN. ) SOLID_ANGLE_UNIT ( ) );
#28 =( NAMED_UNIT ( * ) SI_UNIT ( $, .STERADIAN. ) SOLID_ANGLE_UNIT ( ) );
#29 = ORIENTED_EDGE ( 'NONE', *, *, #184, .F. ) ;
#30 = SURFACE_STYLE_USAGE ( .BOTH. , #134 ) ;
#31 = CARTESIAN_POINT ( 'NONE',  ( 52.01045609161055000, 26.08904114919496600, 0.0000000000000000000 ) ) ;
#32 = DIRECTION ( 'NONE',  ( -1.000000000000000000, -0.0000000000000000000, -0.0000000000000000000 ) ) ;
#33 = MANIFOLD_SOLID_BREP ( 'Ðý×ª1', #114 ) ;
#34 = VERTEX_POINT ( 'NONE', #169 ) ;
#35 = SURFACE_STYLE_FILL_AREA ( #123 ) ;
#36 = ORIENTED_EDGE ( 'NONE', *, *, #94, .F. ) ;
#37 = MECHANICAL_DESIGN_GEOMETRIC_PRESENTATION_REPRESENTATION (  '', ( #102 ), #79 ) ;
#38 = ORIENTED_EDGE ( 'NONE', *, *, #151, .T. ) ;
#39 = CIRCLE ( 'NONE', #65, 25.84800000000000300 ) ;
#40 = DIRECTION ( 'NONE',  ( 0.0000000000000000000, 0.0000000000000000000, 1.000000000000000000 ) ) ;
#41 = AXIS2_PLACEMENT_3D ( 'NONE', #160, #14, #18 ) ;
#42 = SURFACE_STYLE_USAGE ( .BOTH. , #24 ) ;
#43 = PRODUCT ( '120028', '120028', '', ( #54 ) ) ;
#44 = FACE_OUTER_BOUND ( 'NONE', #153, .T. ) ;
#45 = CARTESIAN_POINT ( 'NONE',  ( 52.01045609161055000, 36.08904114919497600, 1.224646799147354000E-015 ) ) ;
#46 = CYLINDRICAL_SURFACE ( 'NONE', #157, 10.00000000000000500 ) ;
#47 = DIRECTION ( 'NONE',  ( 0.0000000000000000000, 0.0000000000000000000, 1.000000000000000000 ) ) ;
#48 = DIRECTION ( 'NONE',  ( 0.0000000000000000000, 0.0000000000000000000, -1.000000000000000000 ) ) ;
#49 = DIRECTION ( 'NONE',  ( 0.0000000000000000000, 0.0000000000000000000, 1.000000000000000000 ) ) ;
#50 =( NAMED_UNIT ( * ) PLANE_ANGLE_UNIT ( ) SI_UNIT ( $, .RADIAN. ) );
#51 =( NAMED_UNIT ( * ) PLANE_ANGLE_UNIT ( ) SI_UNIT ( $, .RADIAN. ) );
#52 = ORIENTED_EDGE ( 'NONE', *, *, #94, .T. ) ;
#53 = APPLICATION_CONTEXT ( 'automotive_design' ) ;
#54 = PRODUCT_CONTEXT ( 'NONE', #2, 'mechanical' ) ;
#55 = SURFACE_STYLE_FILL_AREA ( #77 ) ;
#56 = AXIS2_PLACEMENT_3D ( 'NONE', #135, #49, #68 ) ;
#57 = EDGE_LOOP ( 'NONE', ( #125, #117, #171, #116 ) ) ;
#58 = ADVANCED_FACE ( 'NONE', ( #7 ), #75, .F. ) ;
#59 = AXIS2_PLACEMENT_3D ( 'NONE', #107, #96, #138 ) ;
#60 = VECTOR ( 'NONE', #106, 1000.000000000000000 ) ;
#61 = ORIENTED_EDGE ( 'NONE', *, *, #174, .T. ) ;
#62 = CARTESIAN_POINT ( 'NONE',  ( 49.99770528267209400, 26.08904114919496600, 0.0000000000000000000 ) ) ;
#63 = CYLINDRICAL_SURFACE ( 'NONE', #90, 10.00000000000000500 ) ;
#64 =( LENGTH_UNIT ( ) NAMED_UNIT ( * ) SI_UNIT ( .MILLI., .METRE. ) );
#65 = AXIS2_PLACEMENT_3D ( 'NONE', #108, #124, #13 ) ;
#66 = CARTESIAN_POINT ( 'NONE',  ( 52.01045609161055000, 26.08904114919496600, 0.0000000000000000000 ) ) ;
#67 =( LENGTH_UNIT ( ) NAMED_UNIT ( * ) SI_UNIT ( .MILLI., .METRE. ) );
#68 = DIRECTION ( 'NONE',  ( 0.0000000000000000000, -1.000000000000000000, 0.0000000000000000000 ) ) ;
#69 = CIRCLE ( 'NONE', #41, 10.00000000000000500 ) ;
#70 = ORIENTED_EDGE ( 'NONE', *, *, #184, .T. ) ;
#71 = UNCERTAINTY_MEASURE_WITH_UNIT (LENGTH_MEASURE( 1.000000000000000100E-005 ), #67, 'distance_accuracy_value', 'NONE');
#72 = VERTEX_POINT ( 'NONE', #179 ) ;
#73 = AXIS2_PLACEMENT_3D ( 'NONE', #146, #92, #48 ) ;
#74 = CARTESIAN_POINT ( 'NONE',  ( 75.84570528267210000, 26.08904114919496600, 0.0000000000000000000 ) ) ;
#75 = PLANE ( 'NONE',  #73 ) ;
#76 = CARTESIAN_POINT ( 'NONE',  ( 47.89770528267209200, 26.08904114919496600, 0.0000000000000000000 ) ) ;
#77 = FILL_AREA_STYLE ('',( #120 ) ) ;
#78 = DIRECTION ( 'NONE',  ( 0.0000000000000000000, 0.0000000000000000000, 1.000000000000000000 ) ) ;
#79 =( GEOMETRIC_REPRESENTATION_CONTEXT ( 3 ) GLOBAL_UNCERTAINTY_ASSIGNED_CONTEXT ( ( #101 ) ) GLOBAL_UNIT_ASSIGNED_CONTEXT ( ( #64, #145, #27 ) ) REPRESENTATION_CONTEXT ( 'NONE', 'WORKASPACE' ) );
#80 = CIRCLE ( 'NONE', #17, 10.00000000000000500 ) ;
#81 = VERTEX_POINT ( 'NONE', #104 ) ;
#82 = AXIS2_PLACEMENT_3D ( 'NONE', #25, #12, #133 ) ;
#83 = APPLICATION_PROTOCOL_DEFINITION ( 'draft international standard', 'automotive_design', 1998, #53 ) ;
#84 = PRODUCT_DEFINITION_SHAPE ( 'NONE', 'NONE',  #85 ) ;
#85 = PRODUCT_DEFINITION ( 'Î´Öª', '', #132, #168 ) ;
#86 = SHAPE_DEFINITION_REPRESENTATION ( #84, #181 ) ;
#87 = VECTOR ( 'NONE', #118, 1000.000000000000000 ) ;
#88 = COLOUR_RGB ( '',1.000000000000000000, 1.000000000000000000, 1.000000000000000000 ) ;
#89 = VERTEX_POINT ( 'NONE', #45 ) ;
#90 = AXIS2_PLACEMENT_3D ( 'NONE', #172, #1, #78 ) ;
#91 = CARTESIAN_POINT ( 'NONE',  ( 47.89770528267209200, 26.08904114919496600, 0.0000000000000000000 ) ) ;
#92 = DIRECTION ( 'NONE',  ( 1.000000000000000000, 0.0000000000000000000, 0.0000000000000000000 ) ) ;
#93 = DIRECTION ( 'NONE',  ( 0.0000000000000000000, 0.0000000000000000000, 1.000000000000000000 ) ) ;
#94 = EDGE_CURVE ( 'NONE', #185, #72, #127, .T. ) ;
#95 = VERTEX_POINT ( 'NONE', #62 ) ;
#96 = DIRECTION ( 'NONE',  ( -1.000000000000000000, -0.0000000000000000000, -0.0000000000000000000 ) ) ;
#97 =( LENGTH_UNIT ( ) NAMED_UNIT ( * ) SI_UNIT ( .MILLI., .METRE. ) );
#98 = ADVANCED_FACE ( 'NONE', ( #103 ), #141, .F. ) ;
#99 = ORIENTED_EDGE ( 'NONE', *, *, #105, .T. ) ;
#100 = CIRCLE ( 'NONE', #59, 10.00000000000000500 ) ;
#101 = UNCERTAINTY_MEASURE_WITH_UNIT (LENGTH_MEASURE( 1.000000000000000100E-005 ), #64, 'distance_accuracy_value', 'NONE');
#102 = STYLED_ITEM ( 'NONE', ( #156 ), #33 ) ;
#103 = FACE_OUTER_BOUND ( 'NONE', #57, .T. ) ;
#104 = CARTESIAN_POINT ( 'NONE',  ( 52.01045609161055000, 26.08904114919496600, 10.00000000000000500 ) ) ;
#105 = EDGE_CURVE ( 'NONE', #81, #89, #69, .T. ) ;
#106 = DIRECTION ( 'NONE',  ( -1.000000000000000000, -0.0000000000000000000, -0.0000000000000000000 ) ) ;
#107 = CARTESIAN_POINT ( 'NONE',  ( 52.01045609161055000, 26.08904114919496600, 0.0000000000000000000 ) ) ;
#108 = CARTESIAN_POINT ( 'NONE',  ( 75.84570528267210000, 26.08904114919496600, 0.0000000000000000000 ) ) ;
#109 =( NAMED_UNIT ( * ) SI_UNIT ( $, .STERADIAN. ) SOLID_ANGLE_UNIT ( ) );
#110 = SPHERICAL_SURFACE ( 'NONE', #56, 25.84800000000000300 ) ;
#111 = ORIENTED_EDGE ( 'NONE', *, *, #115, .T. ) ;
#112 = AXIS2_PLACEMENT_3D ( 'NONE', #31, #152, #150 ) ;
#113 = ADVANCED_FACE ( 'NONE', ( #44 ), #63, .T. ) ;
#114 = CLOSED_SHELL ( 'NONE', ( #113, #154, #98, #6, #58 ) ) ;
#115 = EDGE_CURVE ( 'NONE', #162, #72, #176, .T. ) ;
#116 = ORIENTED_EDGE ( 'NONE', *, *, #11, .T. ) ;
#117 = ORIENTED_EDGE ( 'NONE', *, *, #105, .F. ) ;
#118 = DIRECTION ( 'NONE',  ( -1.000000000000000000, -0.0000000000000000000, -0.0000000000000000000 ) ) ;
#119 = EDGE_CURVE ( 'NONE', #89, #185, #80, .T. ) ;
#120 = FILL_AREA_STYLE_COLOUR ( '', #88 ) ;
#121 = FILL_AREA_STYLE_COLOUR ( '', #161 ) ;
#122 = DIRECTION ( 'NONE',  ( 0.0000000000000000000, 0.0000000000000000000, 1.000000000000000000 ) ) ;
#123 = FILL_AREA_STYLE ('',( #121 ) ) ;
#124 = DIRECTION ( 'NONE',  ( 0.0000000000000000000, -1.224646799147353200E-016, 1.000000000000000000 ) ) ;
#125 = ORIENTED_EDGE ( 'NONE', *, *, #174, .F. ) ;
#126 = AXIS2_PLACEMENT_3D ( 'NONE', #91, #147, #182 ) ;
#127 = LINE ( 'NONE', #10, #87 ) ;
#128 = ORIENTED_EDGE ( 'NONE', *, *, #139, .F. ) ;
#129 =( GEOMETRIC_REPRESENTATION_CONTEXT ( 3 ) GLOBAL_UNCERTAINTY_ASSIGNED_CONTEXT ( ( #9 ) ) GLOBAL_UNIT_ASSIGNED_CONTEXT ( ( #97, #51, #28 ) ) REPRESENTATION_CONTEXT ( 'NONE', 'WORKASPACE' ) );
#130 = ORIENTED_EDGE ( 'NONE', *, *, #5, .T. ) ;
#131 = STYLED_ITEM ( 'NONE', ( #163 ), #181 ) ;
#132 = PRODUCT_DEFINITION_FORMATION_WITH_SPECIFIED_SOURCE ( 'ÈÎºÎ', '', #43, .NOT_KNOWN. ) ;
#133 = DIRECTION ( 'NONE',  ( -1.000000000000000000, 0.0000000000000000000, 0.0000000000000000000 ) ) ;
#134 = SURFACE_SIDE_STYLE ('',( #35 ) ) ;
#135 = CARTESIAN_POINT ( 'NONE',  ( 75.84570528267210000, 26.08904114919496600, 0.0000000000000000000 ) ) ;
#136 = DIRECTION ( 'NONE',  ( 0.0000000000000000000, -1.000000000000000000, 0.0000000000000000000 ) ) ;
#137 = CIRCLE ( 'NONE', #112, 10.00000000000000500 ) ;
#138 = DIRECTION ( 'NONE',  ( 0.0000000000000000000, 0.0000000000000000000, 1.000000000000000000 ) ) ;
#139 = EDGE_CURVE ( 'NONE', #81, #162, #166, .T. ) ;
#140 = DIRECTION ( 'NONE',  ( 1.000000000000000000, 0.0000000000000000000, 0.0000000000000000000 ) ) ;
#141 = SPHERICAL_SURFACE ( 'NONE', #165, 25.84800000000000300 ) ;
#142 = AXIS2_PLACEMENT_3D ( 'NONE', #15, #19, #140 ) ;
#143 = AXIS2_PLACEMENT_3D ( 'NONE', #76, #32, #93 ) ;
#144 = PRESENTATION_LAYER_ASSIGNMENT (  '', '', ( #131 ) ) ;
#145 =( NAMED_UNIT ( * ) PLANE_ANGLE_UNIT ( ) SI_UNIT ( $, .RADIAN. ) );
#146 = CARTESIAN_POINT ( 'NONE',  ( 47.89770528267209200, 26.08904114919496600, 0.0000000000000000000 ) ) ;
#147 = DIRECTION ( 'NONE',  ( -1.000000000000000000, -0.0000000000000000000, -0.0000000000000000000 ) ) ;
#148 = CARTESIAN_POINT ( 'NONE',  ( 47.89770528267209200, 26.08904114919496600, 10.00000000000000500 ) ) ;
#149 = PRODUCT_RELATED_PRODUCT_CATEGORY ( 'part', '', ( #43 ) ) ;
#150 = DIRECTION ( 'NONE',  ( 0.0000000000000000000, 0.0000000000000000000, 1.000000000000000000 ) ) ;
#151 = EDGE_CURVE ( 'NONE', #34, #81, #137, .T. ) ;
#152 = DIRECTION ( 'NONE',  ( -1.000000000000000000, -0.0000000000000000000, -0.0000000000000000000 ) ) ;
#153 = EDGE_LOOP ( 'NONE', ( #164, #52, #167, #128, #99 ) ) ;
#154 = ADVANCED_FACE ( 'NONE', ( #20 ), #110, .F. ) ;
#155 = MECHANICAL_DESIGN_GEOMETRIC_PRESENTATION_REPRESENTATION (  '', ( #131 ), #178 ) ;
#156 = PRESENTATION_STYLE_ASSIGNMENT (( #42 ) ) ;
#157 = AXIS2_PLACEMENT_3D ( 'NONE', #23, #183, #40 ) ;
#158 = FACE_OUTER_BOUND ( 'NONE', #177, .T. ) ;
#159 = CIRCLE ( 'NONE', #126, 10.00000000000000500 ) ;
#160 = CARTESIAN_POINT ( 'NONE',  ( 52.01045609161055000, 26.08904114919496600, 0.0000000000000000000 ) ) ;
#161 = COLOUR_RGB ( '',1.000000000000000000, 1.000000000000000000, 1.000000000000000000 ) ;
#162 = VERTEX_POINT ( 'NONE', #148 ) ;
#163 = PRESENTATION_STYLE_ASSIGNMENT (( #30 ) ) ;
#164 = ORIENTED_EDGE ( 'NONE', *, *, #119, .T. ) ;
#165 = AXIS2_PLACEMENT_3D ( 'NONE', #74, #122, #136 ) ;
#166 = LINE ( 'NONE', #26, #60 ) ;
#167 = ORIENTED_EDGE ( 'NONE', *, *, #115, .F. ) ;
#168 = PRODUCT_DEFINITION_CONTEXT ( 'detailed design', #53, 'design' ) ;
#169 = CARTESIAN_POINT ( 'NONE',  ( 52.01045609161055000, 16.08904114919496200, 0.0000000000000000000 ) ) ;
#170 = APPLICATION_PROTOCOL_DEFINITION ( 'draft international standard', 'automotive_design', 1998, #2 ) ;
#171 = ORIENTED_EDGE ( 'NONE', *, *, #151, .F. ) ;
#172 = CARTESIAN_POINT ( 'NONE',  ( 46.02576592330447600, 26.08904114919496600, 0.0000000000000000000 ) ) ;
#173 = CARTESIAN_POINT ( 'NONE',  ( 52.01045609161055000, 26.08904114919496600, -10.00000000000000500 ) ) ;
#174 = EDGE_CURVE ( 'NONE', #89, #95, #39, .T. ) ;
#175 = ORIENTED_EDGE ( 'NONE', *, *, #139, .T. ) ;
#176 = CIRCLE ( 'NONE', #143, 10.00000000000000500 ) ;
#177 = EDGE_LOOP ( 'NONE', ( #36, #70, #38, #175, #180 ) ) ;
#178 =( GEOMETRIC_REPRESENTATION_CONTEXT ( 3 ) GLOBAL_UNCERTAINTY_ASSIGNED_CONTEXT ( ( #71 ) ) GLOBAL_UNIT_ASSIGNED_CONTEXT ( ( #67, #50, #109 ) ) REPRESENTATION_CONTEXT ( 'NONE', 'WORKASPACE' ) );
#179 = CARTESIAN_POINT ( 'NONE',  ( 47.89770528267209200, 26.08904114919496600, -10.00000000000000500 ) ) ;
#180 = ORIENTED_EDGE ( 'NONE', *, *, #5, .F. ) ;
#181 = ADVANCED_BREP_SHAPE_REPRESENTATION ( '120028', ( #33, #142 ), #129 ) ;
#182 = DIRECTION ( 'NONE',  ( 0.0000000000000000000, 0.0000000000000000000, 1.000000000000000000 ) ) ;
#183 = DIRECTION ( 'NONE',  ( -1.000000000000000000, -0.0000000000000000000, -0.0000000000000000000 ) ) ;
#184 = EDGE_CURVE ( 'NONE', #185, #34, #100, .T. ) ;
#185 = VERTEX_POINT ( 'NONE', #173 ) ;
#186 = DIRECTION ( 'NONE',  ( -1.000000000000000000, -0.0000000000000000000, -0.0000000000000000000 ) ) ;
ENDSEC;
END-ISO-10303-21;
