ISO-10303-21;
HEADER;
FILE_DESCRIPTION (( 'STEP AP214' ),
    '1' );
FILE_NAME ('120045.STEP',
    '2019-06-17T06:50:10',
    ( '' ),
    ( '' ),
    'SwSTEP 2.0',
    'SolidWorks 2016',
    '' );
FILE_SCHEMA (( 'AUTOMOTIVE_DESIGN' ));
ENDSEC;

DATA;
#1 = ORIENTED_EDGE ( 'NONE', *, *, #42, .F. ) ;
#2 = DIRECTION ( 'NONE',  ( 1.000000000000000000, 0.0000000000000000000, 0.0000000000000000000 ) ) ;
#3 = CARTESIAN_POINT ( 'NONE',  ( 124.5268958991186800, 65.22153625845356800, 19.99999999999998900 ) ) ;
#4 = ORIENTED_EDGE ( 'NONE', *, *, #134, .F. ) ;
#5 = FILL_AREA_STYLE ('',( #178 ) ) ;
#6 = PRODUCT_CONTEXT ( 'NONE', #115, 'mechanical' ) ;
#7 = CARTESIAN_POINT ( 'NONE',  ( 124.5268958991186800, 65.22153625845356800, 0.0000000000000000000 ) ) ;
#8 = CIRCLE ( 'NONE', #121, 19.99999999999998900 ) ;
#9 = VERTEX_POINT ( 'NONE', #20 ) ;
#10 = EDGE_CURVE ( 'NONE', #101, #181, #111, .T. ) ;
#11 = ORIENTED_EDGE ( 'NONE', *, *, #151, .T. ) ;
#12 = MECHANICAL_DESIGN_GEOMETRIC_PRESENTATION_REPRESENTATION (  '', ( #39 ), #29 ) ;
#13 =( NAMED_UNIT ( * ) PLANE_ANGLE_UNIT ( ) SI_UNIT ( $, .RADIAN. ) );
#14 = DIRECTION ( 'NONE',  ( 0.0000000000000000000, -1.000000000000000000, 0.0000000000000000000 ) ) ;
#15 = CARTESIAN_POINT ( 'NONE',  ( 150.1442728140176800, 65.22153625845356800, 0.0000000000000000000 ) ) ;
#16 =( NAMED_UNIT ( * ) PLANE_ANGLE_UNIT ( ) SI_UNIT ( $, .RADIAN. ) );
#17 = EDGE_CURVE ( 'NONE', #119, #101, #79, .T. ) ;
#18 = VERTEX_POINT ( 'NONE', #135 ) ;
#19 = DIRECTION ( 'NONE',  ( 0.0000000000000000000, -1.224646799147353200E-016, 1.000000000000000000 ) ) ;
#20 = CARTESIAN_POINT ( 'NONE',  ( 115.1442728140176700, 65.22153625845356800, 19.99999999999998900 ) ) ;
#21 = DIRECTION ( 'NONE',  ( 0.0000000000000000000, 0.0000000000000000000, 1.000000000000000000 ) ) ;
#22 = LINE ( 'NONE', #155, #180 ) ;
#23 = MECHANICAL_DESIGN_GEOMETRIC_PRESENTATION_REPRESENTATION (  '', ( #41 ), #67 ) ;
#24 = ORIENTED_EDGE ( 'NONE', *, *, #82, .F. ) ;
#25 = EDGE_CURVE ( 'NONE', #101, #132, #129, .T. ) ;
#26 = CYLINDRICAL_SURFACE ( 'NONE', #138, 19.99999999999998900 ) ;
#27 =( NAMED_UNIT ( * ) SI_UNIT ( $, .STERADIAN. ) SOLID_ANGLE_UNIT ( ) );
#28 = EDGE_LOOP ( 'NONE', ( #81, #96, #59, #68 ) ) ;
#29 =( GEOMETRIC_REPRESENTATION_CONTEXT ( 3 ) GLOBAL_UNCERTAINTY_ASSIGNED_CONTEXT ( ( #37 ) ) GLOBAL_UNIT_ASSIGNED_CONTEXT ( ( #43, #86, #130 ) ) REPRESENTATION_CONTEXT ( 'NONE', 'WORKASPACE' ) );
#30 = DIRECTION ( 'NONE',  ( 0.0000000000000000000, 0.0000000000000000000, 1.000000000000000000 ) ) ;
#31 = CARTESIAN_POINT ( 'NONE',  ( 0.0000000000000000000, 0.0000000000000000000, 0.0000000000000000000 ) ) ;
#32 = DIRECTION ( 'NONE',  ( 0.0000000000000000000, 0.0000000000000000000, 1.000000000000000000 ) ) ;
#33 = LINE ( 'NONE', #156, #125 ) ;
#34 = DIRECTION ( 'NONE',  ( 0.0000000000000000000, 0.0000000000000000000, 1.000000000000000000 ) ) ;
#35 = AXIS2_PLACEMENT_3D ( 'NONE', #52, #19, #55 ) ;
#36 = ORIENTED_EDGE ( 'NONE', *, *, #42, .T. ) ;
#37 = UNCERTAINTY_MEASURE_WITH_UNIT (LENGTH_MEASURE( 1.000000000000000100E-005 ), #43, 'distance_accuracy_value', 'NONE');
#38 = SPHERICAL_SURFACE ( 'NONE', #94, 32.50000000000000000 ) ;
#39 = STYLED_ITEM ( 'NONE', ( #85 ), #64 ) ;
#40 = ORIENTED_EDGE ( 'NONE', *, *, #134, .T. ) ;
#41 = STYLED_ITEM ( 'NONE', ( #73 ), #97 ) ;
#42 = EDGE_CURVE ( 'NONE', #132, #18, #167, .T. ) ;
#43 =( LENGTH_UNIT ( ) NAMED_UNIT ( * ) SI_UNIT ( .MILLI., .METRE. ) );
#44 = FILL_AREA_STYLE ('',( #110 ) ) ;
#45 = CARTESIAN_POINT ( 'NONE',  ( 124.5268958991186800, 85.22153625845358200, 2.449293598294705700E-015 ) ) ;
#46 = AXIS2_PLACEMENT_3D ( 'NONE', #69, #80, #118 ) ;
#47 = CARTESIAN_POINT ( 'NONE',  ( 124.5268958991186800, 65.22153625845356800, 0.0000000000000000000 ) ) ;
#48 = AXIS2_PLACEMENT_3D ( 'NONE', #65, #127, #30 ) ;
#49 = SURFACE_STYLE_USAGE ( .BOTH. , #161 ) ;
#50 =( NAMED_UNIT ( * ) SI_UNIT ( $, .STERADIAN. ) SOLID_ANGLE_UNIT ( ) );
#51 = EDGE_LOOP ( 'NONE', ( #177, #95, #24, #1 ) ) ;
#52 = CARTESIAN_POINT ( 'NONE',  ( 150.1442728140176800, 65.22153625845356800, 0.0000000000000000000 ) ) ;
#53 = ORIENTED_EDGE ( 'NONE', *, *, #151, .F. ) ;
#54 = DIRECTION ( 'NONE',  ( -1.000000000000000000, -0.0000000000000000000, -0.0000000000000000000 ) ) ;
#55 = DIRECTION ( 'NONE',  ( 0.0000000000000000000, -1.000000000000000000, -1.224646799147353500E-016 ) ) ;
#56 = UNCERTAINTY_MEASURE_WITH_UNIT (LENGTH_MEASURE( 1.000000000000000100E-005 ), #100, 'distance_accuracy_value', 'NONE');
#57 = AXIS2_PLACEMENT_3D ( 'NONE', #76, #61, #176 ) ;
#58 = FACE_OUTER_BOUND ( 'NONE', #108, .T. ) ;
#59 = ORIENTED_EDGE ( 'NONE', *, *, #141, .F. ) ;
#60 = ADVANCED_FACE ( 'NONE', ( #58 ), #122, .T. ) ;
#61 = DIRECTION ( 'NONE',  ( 0.0000000000000000000, 0.0000000000000000000, -1.000000000000000000 ) ) ;
#62 = ORIENTED_EDGE ( 'NONE', *, *, #174, .F. ) ;
#63 = CARTESIAN_POINT ( 'NONE',  ( 115.1442728140176700, 65.22153625845356800, -19.99999999999998900 ) ) ;
#64 = MANIFOLD_SOLID_BREP ( 'Ðý×ª1', #98 ) ;
#65 = CARTESIAN_POINT ( 'NONE',  ( 115.1442728140176700, 65.22153625845356800, 0.0000000000000000000 ) ) ;
#66 = APPLICATION_PROTOCOL_DEFINITION ( 'draft international standard', 'automotive_design', 1998, #115 ) ;
#67 =( GEOMETRIC_REPRESENTATION_CONTEXT ( 3 ) GLOBAL_UNCERTAINTY_ASSIGNED_CONTEXT ( ( #185 ) ) GLOBAL_UNIT_ASSIGNED_CONTEXT ( ( #182, #16, #50 ) ) REPRESENTATION_CONTEXT ( 'NONE', 'WORKASPACE' ) );
#68 = ORIENTED_EDGE ( 'NONE', *, *, #82, .T. ) ;
#69 = CARTESIAN_POINT ( 'NONE',  ( 103.2333421658140700, 65.22153625845356800, 0.0000000000000000000 ) ) ;
#70 = COLOUR_RGB ( '',1.000000000000000000, 1.000000000000000000, 1.000000000000000000 ) ;
#71 = AXIS2_PLACEMENT_3D ( 'NONE', #7, #120, #32 ) ;
#72 = ADVANCED_FACE ( 'NONE', ( #89 ), #160, .F. ) ;
#73 = PRESENTATION_STYLE_ASSIGNMENT (( #49 ) ) ;
#74 = CARTESIAN_POINT ( 'NONE',  ( 124.5268958991186800, 65.22153625845356800, -19.99999999999998900 ) ) ;
#75 = DIRECTION ( 'NONE',  ( 0.0000000000000000000, 0.0000000000000000000, 1.000000000000000000 ) ) ;
#76 = CARTESIAN_POINT ( 'NONE',  ( 150.1442728140176800, 65.22153625845356800, 0.0000000000000000000 ) ) ;
#77 = AXIS2_PLACEMENT_3D ( 'NONE', #15, #131, #14 ) ;
#78 = DIRECTION ( 'NONE',  ( 1.000000000000000000, 0.0000000000000000000, 0.0000000000000000000 ) ) ;
#79 = CIRCLE ( 'NONE', #106, 19.99999999999998900 ) ;
#80 = DIRECTION ( 'NONE',  ( -1.000000000000000000, -0.0000000000000000000, -0.0000000000000000000 ) ) ;
#81 = ORIENTED_EDGE ( 'NONE', *, *, #10, .F. ) ;
#82 = EDGE_CURVE ( 'NONE', #18, #181, #184, .T. ) ;
#83 = ADVANCED_FACE ( 'NONE', ( #170 ), #113, .F. ) ;
#84 = COLOUR_RGB ( '',1.000000000000000000, 1.000000000000000000, 1.000000000000000000 ) ;
#85 = PRESENTATION_STYLE_ASSIGNMENT (( #90 ) ) ;
#86 =( NAMED_UNIT ( * ) PLANE_ANGLE_UNIT ( ) SI_UNIT ( $, .RADIAN. ) );
#87 = DIRECTION ( 'NONE',  ( 0.0000000000000000000, 0.0000000000000000000, -1.000000000000000000 ) ) ;
#88 = CARTESIAN_POINT ( 'NONE',  ( 103.2333421658140700, 65.22153625845356800, 0.0000000000000000000 ) ) ;
#89 = FACE_OUTER_BOUND ( 'NONE', #28, .T. ) ;
#90 = SURFACE_STYLE_USAGE ( .BOTH. , #158 ) ;
#91 = ORIENTED_EDGE ( 'NONE', *, *, #99, .F. ) ;
#92 = CARTESIAN_POINT ( 'NONE',  ( 124.5268958991186800, 65.22153625845356800, 0.0000000000000000000 ) ) ;
#93 = PRODUCT ( '120045', '120045', '', ( #6 ) ) ;
#94 = AXIS2_PLACEMENT_3D ( 'NONE', #153, #102, #104 ) ;
#95 = ORIENTED_EDGE ( 'NONE', *, *, #10, .T. ) ;
#96 = ORIENTED_EDGE ( 'NONE', *, *, #17, .F. ) ;
#97 = ADVANCED_BREP_SHAPE_REPRESENTATION ( '120045', ( #64, #126 ), #133 ) ;
#98 = CLOSED_SHELL ( 'NONE', ( #186, #124, #72, #60, #83 ) ) ;
#99 = EDGE_CURVE ( 'NONE', #157, #9, #166, .T. ) ;
#100 =( LENGTH_UNIT ( ) NAMED_UNIT ( * ) SI_UNIT ( .MILLI., .METRE. ) );
#101 = VERTEX_POINT ( 'NONE', #45 ) ;
#102 = DIRECTION ( 'NONE',  ( 0.0000000000000000000, 0.0000000000000000000, 1.000000000000000000 ) ) ;
#103 = CARTESIAN_POINT ( 'NONE',  ( 115.1442728140176700, 65.22153625845356800, 0.0000000000000000000 ) ) ;
#104 = DIRECTION ( 'NONE',  ( 0.0000000000000000000, -1.000000000000000000, 0.0000000000000000000 ) ) ;
#105 = DIRECTION ( 'NONE',  ( -1.000000000000000000, -0.0000000000000000000, -0.0000000000000000000 ) ) ;
#106 = AXIS2_PLACEMENT_3D ( 'NONE', #92, #54, #21 ) ;
#107 = AXIS2_PLACEMENT_3D ( 'NONE', #103, #2, #87 ) ;
#108 = EDGE_LOOP ( 'NONE', ( #53, #36, #123, #152, #91 ) ) ;
#109 = PRESENTATION_LAYER_ASSIGNMENT (  '', '', ( #39 ) ) ;
#110 = FILL_AREA_STYLE_COLOUR ( '', #84 ) ;
#111 = CIRCLE ( 'NONE', #35, 32.50000000000000000 ) ;
#112 = CARTESIAN_POINT ( 'NONE',  ( 117.6442728140176800, 65.22153625845356800, 0.0000000000000000000 ) ) ;
#113 = PLANE ( 'NONE',  #107 ) ;
#114 = DIRECTION ( 'NONE',  ( 0.0000000000000000000, 0.0000000000000000000, 1.000000000000000000 ) ) ;
#115 = APPLICATION_CONTEXT ( 'automotive_design' ) ;
#116 = ORIENTED_EDGE ( 'NONE', *, *, #17, .T. ) ;
#117 = APPLICATION_PROTOCOL_DEFINITION ( 'draft international standard', 'automotive_design', 1998, #147 ) ;
#118 = DIRECTION ( 'NONE',  ( 0.0000000000000000000, 0.0000000000000000000, 1.000000000000000000 ) ) ;
#119 = VERTEX_POINT ( 'NONE', #3 ) ;
#120 = DIRECTION ( 'NONE',  ( -1.000000000000000000, -0.0000000000000000000, -0.0000000000000000000 ) ) ;
#121 = AXIS2_PLACEMENT_3D ( 'NONE', #47, #140, #75 ) ;
#122 = CYLINDRICAL_SURFACE ( 'NONE', #46, 19.99999999999998900 ) ;
#123 = ORIENTED_EDGE ( 'NONE', *, *, #141, .T. ) ;
#124 = ADVANCED_FACE ( 'NONE', ( #143 ), #38, .F. ) ;
#125 = VECTOR ( 'NONE', #139, 1000.000000000000000 ) ;
#126 = AXIS2_PLACEMENT_3D ( 'NONE', #31, #34, #78 ) ;
#127 = DIRECTION ( 'NONE',  ( -1.000000000000000000, -0.0000000000000000000, -0.0000000000000000000 ) ) ;
#128 = CARTESIAN_POINT ( 'NONE',  ( 115.1442728140176700, 65.22153625845356800, 0.0000000000000000000 ) ) ;
#129 = CIRCLE ( 'NONE', #163, 19.99999999999998900 ) ;
#130 =( NAMED_UNIT ( * ) SI_UNIT ( $, .STERADIAN. ) SOLID_ANGLE_UNIT ( ) );
#131 = DIRECTION ( 'NONE',  ( 0.0000000000000000000, 0.0000000000000000000, 1.000000000000000000 ) ) ;
#132 = VERTEX_POINT ( 'NONE', #74 ) ;
#133 =( GEOMETRIC_REPRESENTATION_CONTEXT ( 3 ) GLOBAL_UNCERTAINTY_ASSIGNED_CONTEXT ( ( #56 ) ) GLOBAL_UNIT_ASSIGNED_CONTEXT ( ( #100, #13, #27 ) ) REPRESENTATION_CONTEXT ( 'NONE', 'WORKASPACE' ) );
#134 = EDGE_CURVE ( 'NONE', #9, #157, #149, .T. ) ;
#135 = CARTESIAN_POINT ( 'NONE',  ( 124.5268958991186800, 45.22153625845358200, 0.0000000000000000000 ) ) ;
#136 = DIRECTION ( 'NONE',  ( 0.0000000000000000000, 0.0000000000000000000, 1.000000000000000000 ) ) ;
#137 = SURFACE_STYLE_FILL_AREA ( #5 ) ;
#138 = AXIS2_PLACEMENT_3D ( 'NONE', #88, #142, #114 ) ;
#139 = DIRECTION ( 'NONE',  ( -1.000000000000000000, -0.0000000000000000000, -0.0000000000000000000 ) ) ;
#140 = DIRECTION ( 'NONE',  ( -1.000000000000000000, -0.0000000000000000000, -0.0000000000000000000 ) ) ;
#141 = EDGE_CURVE ( 'NONE', #18, #119, #8, .T. ) ;
#142 = DIRECTION ( 'NONE',  ( -1.000000000000000000, -0.0000000000000000000, -0.0000000000000000000 ) ) ;
#143 = FACE_OUTER_BOUND ( 'NONE', #51, .T. ) ;
#144 = FACE_OUTER_BOUND ( 'NONE', #145, .T. ) ;
#145 = EDGE_LOOP ( 'NONE', ( #162, #11, #4, #62, #116 ) ) ;
#146 = PRODUCT_DEFINITION_FORMATION_WITH_SPECIFIED_SOURCE ( 'ÈÎºÎ', '', #93, .NOT_KNOWN. ) ;
#147 = APPLICATION_CONTEXT ( 'automotive_design' ) ;
#148 = PRODUCT_DEFINITION ( 'Î´Öª', '', #146, #165 ) ;
#149 = CIRCLE ( 'NONE', #48, 19.99999999999998900 ) ;
#150 = SURFACE_STYLE_FILL_AREA ( #44 ) ;
#151 = EDGE_CURVE ( 'NONE', #132, #157, #22, .T. ) ;
#152 = ORIENTED_EDGE ( 'NONE', *, *, #174, .T. ) ;
#153 = CARTESIAN_POINT ( 'NONE',  ( 150.1442728140176800, 65.22153625845356800, 0.0000000000000000000 ) ) ;
#154 = PRODUCT_RELATED_PRODUCT_CATEGORY ( 'part', '', ( #93 ) ) ;
#155 = CARTESIAN_POINT ( 'NONE',  ( 103.2333421658140700, 65.22153625845356800, -19.99999999999998900 ) ) ;
#156 = CARTESIAN_POINT ( 'NONE',  ( 103.2333421658140700, 65.22153625845356800, 19.99999999999998900 ) ) ;
#157 = VERTEX_POINT ( 'NONE', #63 ) ;
#158 = SURFACE_SIDE_STYLE ('',( #150 ) ) ;
#159 = PRESENTATION_LAYER_ASSIGNMENT (  '', '', ( #41 ) ) ;
#160 = SPHERICAL_SURFACE ( 'NONE', #77, 32.50000000000000000 ) ;
#161 = SURFACE_SIDE_STYLE ('',( #137 ) ) ;
#162 = ORIENTED_EDGE ( 'NONE', *, *, #25, .T. ) ;
#163 = AXIS2_PLACEMENT_3D ( 'NONE', #164, #183, #136 ) ;
#164 = CARTESIAN_POINT ( 'NONE',  ( 124.5268958991186800, 65.22153625845356800, 0.0000000000000000000 ) ) ;
#165 = PRODUCT_DEFINITION_CONTEXT ( 'detailed design', #147, 'design' ) ;
#166 = CIRCLE ( 'NONE', #171, 19.99999999999998900 ) ;
#167 = CIRCLE ( 'NONE', #71, 19.99999999999998900 ) ;
#168 = ORIENTED_EDGE ( 'NONE', *, *, #99, .T. ) ;
#169 = SHAPE_DEFINITION_REPRESENTATION ( #179, #97 ) ;
#170 = FACE_OUTER_BOUND ( 'NONE', #173, .T. ) ;
#171 = AXIS2_PLACEMENT_3D ( 'NONE', #128, #175, #172 ) ;
#172 = DIRECTION ( 'NONE',  ( 0.0000000000000000000, 0.0000000000000000000, 1.000000000000000000 ) ) ;
#173 = EDGE_LOOP ( 'NONE', ( #40, #168 ) ) ;
#174 = EDGE_CURVE ( 'NONE', #119, #9, #33, .T. ) ;
#175 = DIRECTION ( 'NONE',  ( -1.000000000000000000, -0.0000000000000000000, -0.0000000000000000000 ) ) ;
#176 = DIRECTION ( 'NONE',  ( -1.000000000000000000, 0.0000000000000000000, 0.0000000000000000000 ) ) ;
#177 = ORIENTED_EDGE ( 'NONE', *, *, #25, .F. ) ;
#178 = FILL_AREA_STYLE_COLOUR ( '', #70 ) ;
#179 = PRODUCT_DEFINITION_SHAPE ( 'NONE', 'NONE',  #148 ) ;
#180 = VECTOR ( 'NONE', #105, 1000.000000000000000 ) ;
#181 = VERTEX_POINT ( 'NONE', #112 ) ;
#182 =( LENGTH_UNIT ( ) NAMED_UNIT ( * ) SI_UNIT ( .MILLI., .METRE. ) );
#183 = DIRECTION ( 'NONE',  ( -1.000000000000000000, -0.0000000000000000000, -0.0000000000000000000 ) ) ;
#184 = CIRCLE ( 'NONE', #57, 32.50000000000000000 ) ;
#185 = UNCERTAINTY_MEASURE_WITH_UNIT (LENGTH_MEASURE( 1.000000000000000100E-005 ), #182, 'distance_accuracy_value', 'NONE');
#186 = ADVANCED_FACE ( 'NONE', ( #144 ), #26, .T. ) ;
ENDSEC;
END-ISO-10303-21;
