ISO-10303-21;
HEADER;
FILE_DESCRIPTION (( 'STEP AP214' ),
    '1' );
FILE_NAME ('120050.STEP',
    '2019-06-17T07:16:23',
    ( '' ),
    ( '' ),
    'SwSTEP 2.0',
    'SolidWorks 2016',
    '' );
FILE_SCHEMA (( 'AUTOMOTIVE_DESIGN' ));
ENDSEC;

DATA;
#1 = ORIENTED_EDGE ( 'NONE', *, *, #121, .T. ) ;
#2 = AXIS2_PLACEMENT_3D ( 'NONE', #113, #102, #104 ) ;
#3 = AXIS2_PLACEMENT_3D ( 'NONE', #27, #64, #76 ) ;
#4 = TOROIDAL_SURFACE ( 'NONE', #44, -0.1603523261628631000, 103.2800000000000200 ) ;
#5 = ADVANCED_FACE ( 'NONE', ( #70 ), #4, .F. ) ;
#6 =( NAMED_UNIT ( * ) PLANE_ANGLE_UNIT ( ) SI_UNIT ( $, .RADIAN. ) );
#7 = ORIENTED_EDGE ( 'NONE', *, *, #75, .F. ) ;
#8 = DIRECTION ( 'NONE',  ( -1.000000000000000000, -0.0000000000000000000, -0.0000000000000000000 ) ) ;
#9 = SURFACE_SIDE_STYLE ('',( #19 ) ) ;
#10 = DIRECTION ( 'NONE',  ( -1.000000000000000000, -0.0000000000000000000, -0.0000000000000000000 ) ) ;
#11 = AXIS2_PLACEMENT_3D ( 'NONE', #142, #10, #66 ) ;
#12 = APPLICATION_CONTEXT ( 'automotive_design' ) ;
#13 = SURFACE_STYLE_USAGE ( .BOTH. , #9 ) ;
#14 = ORIENTED_EDGE ( 'NONE', *, *, #45, .T. ) ;
#15 = AXIS2_PLACEMENT_3D ( 'NONE', #89, #67, #78 ) ;
#16 = LINE ( 'NONE', #36, #150 ) ;
#17 = EDGE_LOOP ( 'NONE', ( #53, #133, #43 ) ) ;
#18 = AXIS2_PLACEMENT_3D ( 'NONE', #28, #25, #107 ) ;
#19 = SURFACE_STYLE_FILL_AREA ( #131 ) ;
#20 = VERTEX_POINT ( 'NONE', #63 ) ;
#21 =( GEOMETRIC_REPRESENTATION_CONTEXT ( 3 ) GLOBAL_UNCERTAINTY_ASSIGNED_CONTEXT ( ( #83 ) ) GLOBAL_UNIT_ASSIGNED_CONTEXT ( ( #65, #24, #105 ) ) REPRESENTATION_CONTEXT ( 'NONE', 'WORKASPACE' ) );
#22 =( NAMED_UNIT ( * ) SI_UNIT ( $, .STERADIAN. ) SOLID_ANGLE_UNIT ( ) );
#23 = VERTEX_POINT ( 'NONE', #126 ) ;
#24 =( NAMED_UNIT ( * ) PLANE_ANGLE_UNIT ( ) SI_UNIT ( $, .RADIAN. ) );
#25 = DIRECTION ( 'NONE',  ( -1.000000000000000000, -0.0000000000000000000, -0.0000000000000000000 ) ) ;
#26 = DIRECTION ( 'NONE',  ( -0.0000000000000000000, 1.000000000000000000, 1.224646799147353200E-016 ) ) ;
#27 = CARTESIAN_POINT ( 'NONE',  ( 105.6218371238301200, 65.15563045701519200, 0.0000000000000000000 ) ) ;
#28 = CARTESIAN_POINT ( 'NONE',  ( 118.3985764510615700, 65.15563045701519200, 0.0000000000000000000 ) ) ;
#29 = PRODUCT_DEFINITION_CONTEXT ( 'detailed design', #42, 'design' ) ;
#30 = PRODUCT ( '120050', '120050', '', ( #128 ) ) ;
#31 = ORIENTED_EDGE ( 'NONE', *, *, #138, .F. ) ;
#32 = AXIS2_PLACEMENT_3D ( 'NONE', #164, #48, #40 ) ;
#33 = PRESENTATION_STYLE_ASSIGNMENT (( #13 ) ) ;
#34 = EDGE_CURVE ( 'NONE', #155, #123, #134, .T. ) ;
#35 = EDGE_LOOP ( 'NONE', ( #1, #71 ) ) ;
#36 = CARTESIAN_POINT ( 'NONE',  ( 105.6218371238301200, 65.15563045701519200, 20.00000000000000400 ) ) ;
#37 = CARTESIAN_POINT ( 'NONE',  ( 219.6918071927304900, 65.15563045701519200, -0.1603523261628631000 ) ) ;
#38 = PLANE ( 'NONE',  #32 ) ;
#39 = MANIFOLD_SOLID_BREP ( 'Ðý×ª1', #55 ) ;
#40 = DIRECTION ( 'NONE',  ( 0.0000000000000000000, 0.0000000000000000000, -1.000000000000000000 ) ) ;
#41 = FILL_AREA_STYLE_COLOUR ( '', #79 ) ;
#42 = APPLICATION_CONTEXT ( 'automotive_design' ) ;
#43 = ORIENTED_EDGE ( 'NONE', *, *, #34, .F. ) ;
#44 = AXIS2_PLACEMENT_3D ( 'NONE', #61, #88, #149 ) ;
#45 = EDGE_CURVE ( 'NONE', #52, #20, #139, .T. ) ;
#46 = FACE_OUTER_BOUND ( 'NONE', #35, .T. ) ;
#47 = DIRECTION ( 'NONE',  ( 1.000000000000000000, 0.0000000000000000000, 0.0000000000000000000 ) ) ;
#48 = DIRECTION ( 'NONE',  ( 1.000000000000000000, 0.0000000000000000000, 0.0000000000000000000 ) ) ;
#49 = DIRECTION ( 'NONE',  ( -1.000000000000000000, -0.0000000000000000000, -0.0000000000000000000 ) ) ;
#50 = ADVANCED_FACE ( 'NONE', ( #158 ), #116, .F. ) ;
#51 = CARTESIAN_POINT ( 'NONE',  ( 118.3985764510615700, 65.15563045701519200, 0.0000000000000000000 ) ) ;
#52 = VERTEX_POINT ( 'NONE', #140 ) ;
#53 = ORIENTED_EDGE ( 'NONE', *, *, #124, .F. ) ;
#54 = AXIS2_PLACEMENT_3D ( 'NONE', #37, #101, #127 ) ;
#55 = CLOSED_SHELL ( 'NONE', ( #166, #50, #5, #108, #143 ) ) ;
#56 = EDGE_CURVE ( 'NONE', #155, #23, #16, .T. ) ;
#57 =( GEOMETRIC_REPRESENTATION_CONTEXT ( 3 ) GLOBAL_UNCERTAINTY_ASSIGNED_CONTEXT ( ( #122 ) ) GLOBAL_UNIT_ASSIGNED_CONTEXT ( ( #125, #6, #22 ) ) REPRESENTATION_CONTEXT ( 'NONE', 'WORKASPACE' ) );
#58 = CYLINDRICAL_SURFACE ( 'NONE', #15, 20.00000000000000400 ) ;
#59 = COLOUR_RGB ( '',1.000000000000000000, 1.000000000000000000, 1.000000000000000000 ) ;
#60 = CARTESIAN_POINT ( 'NONE',  ( 105.6218371238301200, 65.15563045701519200, -20.00000000000000400 ) ) ;
#61 = CARTESIAN_POINT ( 'NONE',  ( 219.6918071927304900, 65.15563045701519200, 0.0000000000000000000 ) ) ;
#62 = FACE_OUTER_BOUND ( 'NONE', #98, .T. ) ;
#63 = CARTESIAN_POINT ( 'NONE',  ( 113.9119316741596200, 65.15563045701519200, -20.00000000000000400 ) ) ;
#64 = DIRECTION ( 'NONE',  ( -1.000000000000000000, -0.0000000000000000000, -0.0000000000000000000 ) ) ;
#65 =( LENGTH_UNIT ( ) NAMED_UNIT ( * ) SI_UNIT ( .MILLI., .METRE. ) );
#66 = DIRECTION ( 'NONE',  ( 0.0000000000000000000, 0.0000000000000000000, 1.000000000000000000 ) ) ;
#67 = DIRECTION ( 'NONE',  ( -1.000000000000000000, -0.0000000000000000000, -0.0000000000000000000 ) ) ;
#68 = UNCERTAINTY_MEASURE_WITH_UNIT (LENGTH_MEASURE( 1.000000000000000100E-005 ), #160, 'distance_accuracy_value', 'NONE');
#69 = APPLICATION_PROTOCOL_DEFINITION ( 'draft international standard', 'automotive_design', 1998, #42 ) ;
#70 = FACE_OUTER_BOUND ( 'NONE', #153, .T. ) ;
#71 = ORIENTED_EDGE ( 'NONE', *, *, #94, .T. ) ;
#72 = PRESENTATION_LAYER_ASSIGNMENT (  '', '', ( #77 ) ) ;
#73 = FILL_AREA_STYLE ('',( #137 ) ) ;
#74 = ORIENTED_EDGE ( 'NONE', *, *, #124, .T. ) ;
#75 = EDGE_CURVE ( 'NONE', #155, #52, #84, .T. ) ;
#76 = DIRECTION ( 'NONE',  ( 0.0000000000000000000, 0.0000000000000000000, 1.000000000000000000 ) ) ;
#77 = STYLED_ITEM ( 'NONE', ( #103 ), #39 ) ;
#78 = DIRECTION ( 'NONE',  ( 0.0000000000000000000, 0.0000000000000000000, 1.000000000000000000 ) ) ;
#79 = COLOUR_RGB ( '',1.000000000000000000, 1.000000000000000000, 1.000000000000000000 ) ;
#80 = CIRCLE ( 'NONE', #119, 20.00000000000000400 ) ;
#81 = STYLED_ITEM ( 'NONE', ( #33 ), #99 ) ;
#82 = ORIENTED_EDGE ( 'NONE', *, *, #56, .F. ) ;
#83 = UNCERTAINTY_MEASURE_WITH_UNIT (LENGTH_MEASURE( 1.000000000000000100E-005 ), #65, 'distance_accuracy_value', 'NONE');
#84 = CIRCLE ( 'NONE', #135, 20.00000000000000400 ) ;
#85 = ORIENTED_EDGE ( 'NONE', *, *, #34, .T. ) ;
#86 = AXIS2_PLACEMENT_3D ( 'NONE', #115, #129, #47 ) ;
#87 = SURFACE_SIDE_STYLE ('',( #148 ) ) ;
#88 = DIRECTION ( 'NONE',  ( -1.000000000000000000, -0.0000000000000000000, -0.0000000000000000000 ) ) ;
#89 = CARTESIAN_POINT ( 'NONE',  ( 105.6218371238301200, 65.15563045701519200, 0.0000000000000000000 ) ) ;
#90 = CARTESIAN_POINT ( 'NONE',  ( 113.9119316741596200, 65.15563045701519200, 0.0000000000000000000 ) ) ;
#91 = PRESENTATION_LAYER_ASSIGNMENT (  '', '', ( #81 ) ) ;
#92 = DIRECTION ( 'NONE',  ( 0.0000000000000000000, 0.0000000000000000000, 1.000000000000000000 ) ) ;
#93 = APPLICATION_PROTOCOL_DEFINITION ( 'draft international standard', 'automotive_design', 1998, #12 ) ;
#94 = EDGE_CURVE ( 'NONE', #20, #23, #80, .T. ) ;
#95 = CIRCLE ( 'NONE', #159, 103.2800000000000200 ) ;
#96 = VECTOR ( 'NONE', #8, 1000.000000000000000 ) ;
#97 = CIRCLE ( 'NONE', #11, 20.00000000000000400 ) ;
#98 = EDGE_LOOP ( 'NONE', ( #136, #14, #154, #82 ) ) ;
#99 = ADVANCED_BREP_SHAPE_REPRESENTATION ( '120050', ( #39, #86 ), #165 ) ;
#100 = MECHANICAL_DESIGN_GEOMETRIC_PRESENTATION_REPRESENTATION (  '', ( #81 ), #21 ) ;
#101 = DIRECTION ( 'NONE',  ( 0.0000000000000000000, -1.000000000000000000, 0.0000000000000000000 ) ) ;
#102 = DIRECTION ( 'NONE',  ( -1.000000000000000000, -0.0000000000000000000, -0.0000000000000000000 ) ) ;
#103 = PRESENTATION_STYLE_ASSIGNMENT (( #112 ) ) ;
#104 = DIRECTION ( 'NONE',  ( 0.0000000000000000000, 0.0000000000000000000, 1.000000000000000000 ) ) ;
#105 =( NAMED_UNIT ( * ) SI_UNIT ( $, .STERADIAN. ) SOLID_ANGLE_UNIT ( ) );
#106 = CIRCLE ( 'NONE', #18, 20.00000000000000400 ) ;
#107 = DIRECTION ( 'NONE',  ( 0.0000000000000000000, 0.0000000000000000000, 1.000000000000000000 ) ) ;
#108 = ADVANCED_FACE ( 'NONE', ( #120 ), #156, .T. ) ;
#109 =( NAMED_UNIT ( * ) PLANE_ANGLE_UNIT ( ) SI_UNIT ( $, .RADIAN. ) );
#110 = ORIENTED_EDGE ( 'NONE', *, *, #94, .F. ) ;
#111 = EDGE_LOOP ( 'NONE', ( #157, #74, #163, #110 ) ) ;
#112 = SURFACE_STYLE_USAGE ( .BOTH. , #87 ) ;
#113 = CARTESIAN_POINT ( 'NONE',  ( 219.6918071927304900, 65.15563045701519200, 0.0000000000000000000 ) ) ;
#114 = PRODUCT_DEFINITION_SHAPE ( 'NONE', 'NONE',  #144 ) ;
#115 = CARTESIAN_POINT ( 'NONE',  ( 0.0000000000000000000, 0.0000000000000000000, 0.0000000000000000000 ) ) ;
#116 = TOROIDAL_SURFACE ( 'NONE', #2, -0.1603523261628631000, 103.2800000000000200 ) ;
#117 = DIRECTION ( 'NONE',  ( 0.0000000000000000000, -1.343705248626496300E-016, 1.000000000000000000 ) ) ;
#118 = CARTESIAN_POINT ( 'NONE',  ( 116.4119316741596200, 65.15563045701519200, 0.0000000000000000000 ) ) ;
#119 = AXIS2_PLACEMENT_3D ( 'NONE', #90, #49, #162 ) ;
#120 = FACE_OUTER_BOUND ( 'NONE', #111, .T. ) ;
#121 = EDGE_CURVE ( 'NONE', #23, #20, #97, .T. ) ;
#122 = UNCERTAINTY_MEASURE_WITH_UNIT (LENGTH_MEASURE( 1.000000000000000100E-005 ), #125, 'distance_accuracy_value', 'NONE');
#123 = VERTEX_POINT ( 'NONE', #118 ) ;
#124 = EDGE_CURVE ( 'NONE', #52, #155, #106, .T. ) ;
#125 =( LENGTH_UNIT ( ) NAMED_UNIT ( * ) SI_UNIT ( .MILLI., .METRE. ) );
#126 = CARTESIAN_POINT ( 'NONE',  ( 113.9119316741596200, 65.15563045701519200, 20.00000000000000400 ) ) ;
#127 = DIRECTION ( 'NONE',  ( 0.0000000000000000000, 0.0000000000000000000, -1.000000000000000000 ) ) ;
#128 = PRODUCT_CONTEXT ( 'NONE', #12, 'mechanical' ) ;
#129 = DIRECTION ( 'NONE',  ( 0.0000000000000000000, 0.0000000000000000000, 1.000000000000000000 ) ) ;
#130 = MECHANICAL_DESIGN_GEOMETRIC_PRESENTATION_REPRESENTATION (  '', ( #77 ), #57 ) ;
#131 = FILL_AREA_STYLE ('',( #41 ) ) ;
#132 =( NAMED_UNIT ( * ) SI_UNIT ( $, .STERADIAN. ) SOLID_ANGLE_UNIT ( ) );
#133 = ORIENTED_EDGE ( 'NONE', *, *, #138, .T. ) ;
#134 = CIRCLE ( 'NONE', #54, 103.2800000000000200 ) ;
#135 = AXIS2_PLACEMENT_3D ( 'NONE', #51, #141, #92 ) ;
#136 = ORIENTED_EDGE ( 'NONE', *, *, #75, .T. ) ;
#137 = FILL_AREA_STYLE_COLOUR ( '', #59 ) ;
#138 = EDGE_CURVE ( 'NONE', #52, #123, #95, .T. ) ;
#139 = LINE ( 'NONE', #60, #96 ) ;
#140 = CARTESIAN_POINT ( 'NONE',  ( 118.3985764510615700, 65.15563045701519200, -20.00000000000000000 ) ) ;
#141 = DIRECTION ( 'NONE',  ( -1.000000000000000000, -0.0000000000000000000, -0.0000000000000000000 ) ) ;
#142 = CARTESIAN_POINT ( 'NONE',  ( 113.9119316741596200, 65.15563045701519200, 0.0000000000000000000 ) ) ;
#143 = ADVANCED_FACE ( 'NONE', ( #46 ), #38, .F. ) ;
#144 = PRODUCT_DEFINITION ( 'Î´Öª', '', #145, #29 ) ;
#145 = PRODUCT_DEFINITION_FORMATION_WITH_SPECIFIED_SOURCE ( 'ÈÎºÎ', '', #30, .NOT_KNOWN. ) ;
#146 = PRODUCT_RELATED_PRODUCT_CATEGORY ( 'part', '', ( #30 ) ) ;
#147 = DIRECTION ( 'NONE',  ( -1.000000000000000000, -0.0000000000000000000, -0.0000000000000000000 ) ) ;
#148 = SURFACE_STYLE_FILL_AREA ( #73 ) ;
#149 = DIRECTION ( 'NONE',  ( 0.0000000000000000000, 0.0000000000000000000, 1.000000000000000000 ) ) ;
#150 = VECTOR ( 'NONE', #147, 1000.000000000000000 ) ;
#151 = CARTESIAN_POINT ( 'NONE',  ( 118.3985764510615700, 65.15563045701519200, 20.00000000000000000 ) ) ;
#152 = CARTESIAN_POINT ( 'NONE',  ( 219.6918071927304900, 65.15563045701519200, 0.1603523261628631000 ) ) ;
#153 = EDGE_LOOP ( 'NONE', ( #31, #7, #85 ) ) ;
#154 = ORIENTED_EDGE ( 'NONE', *, *, #121, .F. ) ;
#155 = VERTEX_POINT ( 'NONE', #151 ) ;
#156 = CYLINDRICAL_SURFACE ( 'NONE', #3, 20.00000000000000400 ) ;
#157 = ORIENTED_EDGE ( 'NONE', *, *, #45, .F. ) ;
#158 = FACE_OUTER_BOUND ( 'NONE', #17, .T. ) ;
#159 = AXIS2_PLACEMENT_3D ( 'NONE', #152, #26, #117 ) ;
#160 =( LENGTH_UNIT ( ) NAMED_UNIT ( * ) SI_UNIT ( .MILLI., .METRE. ) );
#161 = SHAPE_DEFINITION_REPRESENTATION ( #114, #99 ) ;
#162 = DIRECTION ( 'NONE',  ( 0.0000000000000000000, 0.0000000000000000000, 1.000000000000000000 ) ) ;
#163 = ORIENTED_EDGE ( 'NONE', *, *, #56, .T. ) ;
#164 = CARTESIAN_POINT ( 'NONE',  ( 113.9119316741596200, 65.15563045701519200, 0.0000000000000000000 ) ) ;
#165 =( GEOMETRIC_REPRESENTATION_CONTEXT ( 3 ) GLOBAL_UNCERTAINTY_ASSIGNED_CONTEXT ( ( #68 ) ) GLOBAL_UNIT_ASSIGNED_CONTEXT ( ( #160, #109, #132 ) ) REPRESENTATION_CONTEXT ( 'NONE', 'WORKASPACE' ) );
#166 = ADVANCED_FACE ( 'NONE', ( #62 ), #58, .T. ) ;
ENDSEC;
END-ISO-10303-21;
