ISO-10303-21;
HEADER;
FILE_DESCRIPTION (( 'STEP AP214' ),
    '1' );
FILE_NAME ('120001.STEP',
    '2019-06-13T06:30:58',
    ( '' ),
    ( '' ),
    'SwSTEP 2.0',
    'SolidWorks 2016',
    '' );
FILE_SCHEMA (( 'AUTOMOTIVE_DESIGN' ));
ENDSEC;

DATA;
#1 = VERTEX_POINT ( 'NONE', #144 ) ;
#2 = DIRECTION ( 'NONE',  ( -1.000000000000000000, -0.0000000000000000000, -0.0000000000000000000 ) ) ;
#3 = EDGE_CURVE ( 'NONE', #1, #41, #62, .T. ) ;
#4 = CLOSED_SHELL ( 'NONE', ( #105, #85, #148, #7, #42 ) ) ;
#5 = AXIS2_PLACEMENT_3D ( 'NONE', #83, #56, #40 ) ;
#6 = DIRECTION ( 'NONE',  ( 0.0000000000000000000, 0.0000000000000000000, -1.000000000000000000 ) ) ;
#7 = ADVANCED_FACE ( 'NONE', ( #88 ), #120, .T. ) ;
#8 = DIRECTION ( 'NONE',  ( -1.000000000000000000, -0.0000000000000000000, -0.0000000000000000000 ) ) ;
#9 = DIRECTION ( 'NONE',  ( -1.000000000000000000, -0.0000000000000000000, -0.0000000000000000000 ) ) ;
#10 = CIRCLE ( 'NONE', #5, 2.000000000000000900 ) ;
#11 = VERTEX_POINT ( 'NONE', #129 ) ;
#12 = CIRCLE ( 'NONE', #87, 2.000000000000000900 ) ;
#13 = SPHERICAL_SURFACE ( 'NONE', #123, 3.243550724637682700 ) ;
#14 = CARTESIAN_POINT ( 'NONE',  ( 10.61246527853420600, 6.522260287298739600, 2.000000000000000900 ) ) ;
#15 = DIRECTION ( 'NONE',  ( 0.0000000000000000000, 0.0000000000000000000, 1.000000000000000000 ) ) ;
#16 = DIRECTION ( 'NONE',  ( 0.0000000000000000000, 0.0000000000000000000, 1.000000000000000000 ) ) ;
#17 = FILL_AREA_STYLE ('',( #43 ) ) ;
#18 = ORIENTED_EDGE ( 'NONE', *, *, #61, .F. ) ;
#19 = APPLICATION_CONTEXT ( 'automotive_design' ) ;
#20 = CARTESIAN_POINT ( 'NONE',  ( 13.27286323056900300, 6.522260287298739600, 0.0000000000000000000 ) ) ;
#21 =( NAMED_UNIT ( * ) SI_UNIT ( $, .STERADIAN. ) SOLID_ANGLE_UNIT ( ) );
#22 = COLOUR_RGB ( '',1.000000000000000000, 1.000000000000000000, 1.000000000000000000 ) ;
#23 = EDGE_CURVE ( 'NONE', #36, #182, #160, .T. ) ;
#24 = PRODUCT ( '120001', '120001', '', ( #34 ) ) ;
#25 = CARTESIAN_POINT ( 'NONE',  ( 10.61246527853420600, 6.522260287298739600, -2.000000000000000900 ) ) ;
#26 = ORIENTED_EDGE ( 'NONE', *, *, #114, .T. ) ;
#27 = CARTESIAN_POINT ( 'NONE',  ( 10.61246527853420600, 6.522260287298739600, 0.0000000000000000000 ) ) ;
#28 = AXIS2_PLACEMENT_3D ( 'NONE', #154, #9, #90 ) ;
#29 = ORIENTED_EDGE ( 'NONE', *, *, #3, .F. ) ;
#30 = CARTESIAN_POINT ( 'NONE',  ( 15.82641395520668600, 6.522260287298739600, 0.0000000000000000000 ) ) ;
#31 =( NAMED_UNIT ( * ) PLANE_ANGLE_UNIT ( ) SI_UNIT ( $, .RADIAN. ) );
#32 = SURFACE_SIDE_STYLE ('',( #145 ) ) ;
#33 = DIRECTION ( 'NONE',  ( 0.0000000000000000000, -1.224646799147353200E-016, 1.000000000000000000 ) ) ;
#34 = PRODUCT_CONTEXT ( 'NONE', #19, 'mechanical' ) ;
#35 = ORIENTED_EDGE ( 'NONE', *, *, #103, .F. ) ;
#36 = VERTEX_POINT ( 'NONE', #94 ) ;
#37 = PRODUCT_DEFINITION_FORMATION_WITH_SPECIFIED_SOURCE ( 'ÈÎºÎ', '', #24, .NOT_KNOWN. ) ;
#38 = PRODUCT_DEFINITION_CONTEXT ( 'detailed design', #185, 'design' ) ;
#39 = EDGE_CURVE ( 'NONE', #182, #164, #10, .T. ) ;
#40 = DIRECTION ( 'NONE',  ( 0.0000000000000000000, 0.0000000000000000000, 1.000000000000000000 ) ) ;
#41 = VERTEX_POINT ( 'NONE', #146 ) ;
#42 = ADVANCED_FACE ( 'NONE', ( #157 ), #95, .F. ) ;
#43 = FILL_AREA_STYLE_COLOUR ( '', #22 ) ;
#44 = FILL_AREA_STYLE ('',( #96 ) ) ;
#45 = VECTOR ( 'NONE', #53, 1000.000000000000000 ) ;
#46 =( LENGTH_UNIT ( ) NAMED_UNIT ( * ) SI_UNIT ( .MILLI., .METRE. ) );
#47 = PRODUCT_RELATED_PRODUCT_CATEGORY ( 'part', '', ( #24 ) ) ;
#48 = DIRECTION ( 'NONE',  ( 0.0000000000000000000, 0.0000000000000000000, 1.000000000000000000 ) ) ;
#49 = STYLED_ITEM ( 'NONE', ( #60 ), #112 ) ;
#50 = CIRCLE ( 'NONE', #64, 2.000000000000000900 ) ;
#51 = EDGE_CURVE ( 'NONE', #164, #41, #158, .T. ) ;
#52 = ORIENTED_EDGE ( 'NONE', *, *, #57, .F. ) ;
#53 = DIRECTION ( 'NONE',  ( -1.000000000000000000, -0.0000000000000000000, -0.0000000000000000000 ) ) ;
#54 = CIRCLE ( 'NONE', #173, 2.000000000000000900 ) ;
#55 = DIRECTION ( 'NONE',  ( 0.0000000000000000000, 0.0000000000000000000, 1.000000000000000000 ) ) ;
#56 = DIRECTION ( 'NONE',  ( -1.000000000000000000, -0.0000000000000000000, -0.0000000000000000000 ) ) ;
#57 = EDGE_CURVE ( 'NONE', #182, #11, #113, .T. ) ;
#58 =( NAMED_UNIT ( * ) PLANE_ANGLE_UNIT ( ) SI_UNIT ( $, .RADIAN. ) );
#59 = DIRECTION ( 'NONE',  ( 0.0000000000000000000, 0.0000000000000000000, 1.000000000000000000 ) ) ;
#60 = PRESENTATION_STYLE_ASSIGNMENT (( #72 ) ) ;
#61 = EDGE_CURVE ( 'NONE', #36, #1, #81, .T. ) ;
#62 = CIRCLE ( 'NONE', #107, 2.000000000000000900 ) ;
#63 = UNCERTAINTY_MEASURE_WITH_UNIT (LENGTH_MEASURE( 1.000000000000000100E-005 ), #181, 'distance_accuracy_value', 'NONE');
#64 = AXIS2_PLACEMENT_3D ( 'NONE', #150, #135, #48 ) ;
#65 = ORIENTED_EDGE ( 'NONE', *, *, #108, .F. ) ;
#66 = PRESENTATION_LAYER_ASSIGNMENT (  '', '', ( #49 ) ) ;
#67 = ORIENTED_EDGE ( 'NONE', *, *, #23, .T. ) ;
#68 = CARTESIAN_POINT ( 'NONE',  ( 13.27286323056900300, 6.522260287298739600, 0.0000000000000000000 ) ) ;
#69 = SPHERICAL_SURFACE ( 'NONE', #166, 3.243550724637682700 ) ;
#70 = DIRECTION ( 'NONE',  ( 0.0000000000000000000, 0.0000000000000000000, 1.000000000000000000 ) ) ;
#71 =( NAMED_UNIT ( * ) SI_UNIT ( $, .STERADIAN. ) SOLID_ANGLE_UNIT ( ) );
#72 = SURFACE_STYLE_USAGE ( .BOTH. , #183 ) ;
#73 =( NAMED_UNIT ( * ) SI_UNIT ( $, .STERADIAN. ) SOLID_ANGLE_UNIT ( ) );
#74 =( NAMED_UNIT ( * ) PLANE_ANGLE_UNIT ( ) SI_UNIT ( $, .RADIAN. ) );
#75 = SHAPE_DEFINITION_REPRESENTATION ( #130, #177 ) ;
#76 = CARTESIAN_POINT ( 'NONE',  ( 13.27286323056900300, 8.522260287298740500, 2.449293598294707400E-016 ) ) ;
#77 = PRESENTATION_LAYER_ASSIGNMENT (  '', '', ( #118 ) ) ;
#78 = UNCERTAINTY_MEASURE_WITH_UNIT (LENGTH_MEASURE( 1.000000000000000100E-005 ), #46, 'distance_accuracy_value', 'NONE');
#79 = AXIS2_PLACEMENT_3D ( 'NONE', #82, #180, #84 ) ;
#80 = EDGE_LOOP ( 'NONE', ( #52, #134, #65, #143 ) ) ;
#81 = LINE ( 'NONE', #14, #178 ) ;
#82 = CARTESIAN_POINT ( 'NONE',  ( 11.08286323056900400, 6.522260287298739600, 0.0000000000000000000 ) ) ;
#83 = CARTESIAN_POINT ( 'NONE',  ( 13.27286323056900300, 6.522260287298739600, 0.0000000000000000000 ) ) ;
#84 = DIRECTION ( 'NONE',  ( 0.0000000000000000000, 0.0000000000000000000, -1.000000000000000000 ) ) ;
#85 = ADVANCED_FACE ( 'NONE', ( #167 ), #13, .F. ) ;
#86 = CARTESIAN_POINT ( 'NONE',  ( 15.82641395520668600, 6.522260287298739600, 0.0000000000000000000 ) ) ;
#87 = AXIS2_PLACEMENT_3D ( 'NONE', #117, #8, #59 ) ;
#88 = FACE_OUTER_BOUND ( 'NONE', #92, .T. ) ;
#89 = DIRECTION ( 'NONE',  ( -1.000000000000000000, 0.0000000000000000000, 0.0000000000000000000 ) ) ;
#90 = DIRECTION ( 'NONE',  ( 0.0000000000000000000, 0.0000000000000000000, 1.000000000000000000 ) ) ;
#91 = CIRCLE ( 'NONE', #142, 3.243550724637682700 ) ;
#92 = EDGE_LOOP ( 'NONE', ( #101, #153, #97, #149, #174 ) ) ;
#93 = DIRECTION ( 'NONE',  ( -1.000000000000000000, -0.0000000000000000000, -0.0000000000000000000 ) ) ;
#94 = CARTESIAN_POINT ( 'NONE',  ( 13.27286323056900300, 6.522260287298739600, 2.000000000000000900 ) ) ;
#95 = PLANE ( 'NONE',  #79 ) ;
#96 = FILL_AREA_STYLE_COLOUR ( '', #169 ) ;
#97 = ORIENTED_EDGE ( 'NONE', *, *, #108, .T. ) ;
#98 = PRESENTATION_STYLE_ASSIGNMENT (( #102 ) ) ;
#99 = CARTESIAN_POINT ( 'NONE',  ( 15.82641395520668600, 6.522260287298739600, 0.0000000000000000000 ) ) ;
#100 =( LENGTH_UNIT ( ) NAMED_UNIT ( * ) SI_UNIT ( .MILLI., .METRE. ) );
#101 = ORIENTED_EDGE ( 'NONE', *, *, #51, .F. ) ;
#102 = SURFACE_STYLE_USAGE ( .BOTH. , #32 ) ;
#103 = EDGE_CURVE ( 'NONE', #164, #124, #54, .T. ) ;
#104 = APPLICATION_PROTOCOL_DEFINITION ( 'draft international standard', 'automotive_design', 1998, #185 ) ;
#105 = ADVANCED_FACE ( 'NONE', ( #125 ), #138, .T. ) ;
#106 = ORIENTED_EDGE ( 'NONE', *, *, #39, .T. ) ;
#107 = AXIS2_PLACEMENT_3D ( 'NONE', #162, #2, #55 ) ;
#108 = EDGE_CURVE ( 'NONE', #124, #36, #50, .T. ) ;
#109 =( GEOMETRIC_REPRESENTATION_CONTEXT ( 3 ) GLOBAL_UNCERTAINTY_ASSIGNED_CONTEXT ( ( #170 ) ) GLOBAL_UNIT_ASSIGNED_CONTEXT ( ( #100, #31, #71 ) ) REPRESENTATION_CONTEXT ( 'NONE', 'WORKASPACE' ) );
#110 = ORIENTED_EDGE ( 'NONE', *, *, #39, .F. ) ;
#111 = ORIENTED_EDGE ( 'NONE', *, *, #161, .F. ) ;
#112 = MANIFOLD_SOLID_BREP ( 'Ðý×ª1', #4 ) ;
#113 = CIRCLE ( 'NONE', #156, 3.243550724637682700 ) ;
#114 = EDGE_CURVE ( 'NONE', #41, #1, #12, .T. ) ;
#115 = EDGE_LOOP ( 'NONE', ( #106, #186, #29, #18, #67 ) ) ;
#116 = AXIS2_PLACEMENT_3D ( 'NONE', #68, #131, #15 ) ;
#117 = CARTESIAN_POINT ( 'NONE',  ( 11.08286323056900400, 6.522260287298739600, 0.0000000000000000000 ) ) ;
#118 = STYLED_ITEM ( 'NONE', ( #98 ), #177 ) ;
#119 = APPLICATION_PROTOCOL_DEFINITION ( 'draft international standard', 'automotive_design', 1998, #19 ) ;
#120 = CYLINDRICAL_SURFACE ( 'NONE', #128, 2.000000000000000900 ) ;
#121 = DIRECTION ( 'NONE',  ( 0.0000000000000000000, -1.000000000000000000, -1.224646799147353200E-016 ) ) ;
#122 = CARTESIAN_POINT ( 'NONE',  ( 13.27286323056900300, 4.522260287298738700, 0.0000000000000000000 ) ) ;
#123 = AXIS2_PLACEMENT_3D ( 'NONE', #175, #152, #151 ) ;
#124 = VERTEX_POINT ( 'NONE', #122 ) ;
#125 = FACE_OUTER_BOUND ( 'NONE', #115, .T. ) ;
#126 = MECHANICAL_DESIGN_GEOMETRIC_PRESENTATION_REPRESENTATION (  '', ( #118 ), #140 ) ;
#127 = EDGE_LOOP ( 'NONE', ( #110, #168, #111, #35 ) ) ;
#128 = AXIS2_PLACEMENT_3D ( 'NONE', #27, #93, #70 ) ;
#129 = CARTESIAN_POINT ( 'NONE',  ( 12.58286323056900400, 6.522260287298739600, 0.0000000000000000000 ) ) ;
#130 = PRODUCT_DEFINITION_SHAPE ( 'NONE', 'NONE',  #171 ) ;
#131 = DIRECTION ( 'NONE',  ( -1.000000000000000000, -0.0000000000000000000, -0.0000000000000000000 ) ) ;
#132 =( GEOMETRIC_REPRESENTATION_CONTEXT ( 3 ) GLOBAL_UNCERTAINTY_ASSIGNED_CONTEXT ( ( #63 ) ) GLOBAL_UNIT_ASSIGNED_CONTEXT ( ( #181, #74, #73 ) ) REPRESENTATION_CONTEXT ( 'NONE', 'WORKASPACE' ) );
#133 = DIRECTION ( 'NONE',  ( 0.0000000000000000000, 0.0000000000000000000, 1.000000000000000000 ) ) ;
#134 = ORIENTED_EDGE ( 'NONE', *, *, #23, .F. ) ;
#135 = DIRECTION ( 'NONE',  ( -1.000000000000000000, -0.0000000000000000000, -0.0000000000000000000 ) ) ;
#136 = CARTESIAN_POINT ( 'NONE',  ( 13.27286323056900300, 6.522260287298739600, -2.000000000000000900 ) ) ;
#137 = DIRECTION ( 'NONE',  ( -1.000000000000000000, -0.0000000000000000000, -0.0000000000000000000 ) ) ;
#138 = CYLINDRICAL_SURFACE ( 'NONE', #28, 2.000000000000000900 ) ;
#139 = MECHANICAL_DESIGN_GEOMETRIC_PRESENTATION_REPRESENTATION (  '', ( #49 ), #132 ) ;
#140 =( GEOMETRIC_REPRESENTATION_CONTEXT ( 3 ) GLOBAL_UNCERTAINTY_ASSIGNED_CONTEXT ( ( #78 ) ) GLOBAL_UNIT_ASSIGNED_CONTEXT ( ( #46, #58, #21 ) ) REPRESENTATION_CONTEXT ( 'NONE', 'WORKASPACE' ) );
#141 = EDGE_LOOP ( 'NONE', ( #159, #26 ) ) ;
#142 = AXIS2_PLACEMENT_3D ( 'NONE', #99, #6, #89 ) ;
#143 = ORIENTED_EDGE ( 'NONE', *, *, #161, .T. ) ;
#144 = CARTESIAN_POINT ( 'NONE',  ( 11.08286323056900400, 6.522260287298739600, 2.000000000000000900 ) ) ;
#145 = SURFACE_STYLE_FILL_AREA ( #44 ) ;
#146 = CARTESIAN_POINT ( 'NONE',  ( 11.08286323056900400, 6.522260287298739600, -2.000000000000000900 ) ) ;
#147 = CARTESIAN_POINT ( 'NONE',  ( 0.0000000000000000000, 0.0000000000000000000, 0.0000000000000000000 ) ) ;
#148 = ADVANCED_FACE ( 'NONE', ( #155 ), #69, .F. ) ;
#149 = ORIENTED_EDGE ( 'NONE', *, *, #61, .T. ) ;
#150 = CARTESIAN_POINT ( 'NONE',  ( 13.27286323056900300, 6.522260287298739600, 0.0000000000000000000 ) ) ;
#151 = DIRECTION ( 'NONE',  ( 0.0000000000000000000, -1.000000000000000000, 0.0000000000000000000 ) ) ;
#152 = DIRECTION ( 'NONE',  ( 0.0000000000000000000, 0.0000000000000000000, 1.000000000000000000 ) ) ;
#153 = ORIENTED_EDGE ( 'NONE', *, *, #103, .T. ) ;
#154 = CARTESIAN_POINT ( 'NONE',  ( 10.61246527853420600, 6.522260287298739600, 0.0000000000000000000 ) ) ;
#155 = FACE_OUTER_BOUND ( 'NONE', #80, .T. ) ;
#156 = AXIS2_PLACEMENT_3D ( 'NONE', #30, #33, #121 ) ;
#157 = FACE_OUTER_BOUND ( 'NONE', #141, .T. ) ;
#158 = LINE ( 'NONE', #25, #45 ) ;
#159 = ORIENTED_EDGE ( 'NONE', *, *, #3, .T. ) ;
#160 = CIRCLE ( 'NONE', #116, 2.000000000000000900 ) ;
#161 = EDGE_CURVE ( 'NONE', #124, #11, #91, .T. ) ;
#162 = CARTESIAN_POINT ( 'NONE',  ( 11.08286323056900400, 6.522260287298739600, 0.0000000000000000000 ) ) ;
#163 = DIRECTION ( 'NONE',  ( 0.0000000000000000000, 0.0000000000000000000, 1.000000000000000000 ) ) ;
#164 = VERTEX_POINT ( 'NONE', #136 ) ;
#165 = DIRECTION ( 'NONE',  ( 0.0000000000000000000, -1.000000000000000000, 0.0000000000000000000 ) ) ;
#166 = AXIS2_PLACEMENT_3D ( 'NONE', #86, #163, #165 ) ;
#167 = FACE_OUTER_BOUND ( 'NONE', #127, .T. ) ;
#168 = ORIENTED_EDGE ( 'NONE', *, *, #57, .T. ) ;
#169 = COLOUR_RGB ( '',1.000000000000000000, 1.000000000000000000, 1.000000000000000000 ) ;
#170 = UNCERTAINTY_MEASURE_WITH_UNIT (LENGTH_MEASURE( 1.000000000000000100E-005 ), #100, 'distance_accuracy_value', 'NONE');
#171 = PRODUCT_DEFINITION ( 'Î´Öª', '', #37, #38 ) ;
#172 = SURFACE_STYLE_FILL_AREA ( #17 ) ;
#173 = AXIS2_PLACEMENT_3D ( 'NONE', #20, #137, #133 ) ;
#174 = ORIENTED_EDGE ( 'NONE', *, *, #114, .F. ) ;
#175 = CARTESIAN_POINT ( 'NONE',  ( 15.82641395520668600, 6.522260287298739600, 0.0000000000000000000 ) ) ;
#176 = DIRECTION ( 'NONE',  ( -1.000000000000000000, -0.0000000000000000000, -0.0000000000000000000 ) ) ;
#177 = ADVANCED_BREP_SHAPE_REPRESENTATION ( '120001', ( #112, #179 ), #109 ) ;
#178 = VECTOR ( 'NONE', #176, 1000.000000000000000 ) ;
#179 = AXIS2_PLACEMENT_3D ( 'NONE', #147, #16, #184 ) ;
#180 = DIRECTION ( 'NONE',  ( 1.000000000000000000, 0.0000000000000000000, 0.0000000000000000000 ) ) ;
#181 =( LENGTH_UNIT ( ) NAMED_UNIT ( * ) SI_UNIT ( .MILLI., .METRE. ) );
#182 = VERTEX_POINT ( 'NONE', #76 ) ;
#183 = SURFACE_SIDE_STYLE ('',( #172 ) ) ;
#184 = DIRECTION ( 'NONE',  ( 1.000000000000000000, 0.0000000000000000000, 0.0000000000000000000 ) ) ;
#185 = APPLICATION_CONTEXT ( 'automotive_design' ) ;
#186 = ORIENTED_EDGE ( 'NONE', *, *, #51, .T. ) ;
ENDSEC;
END-ISO-10303-21;
