ISO-10303-21;
HEADER;
FILE_DESCRIPTION (( 'STEP AP214' ),
    '1' );
FILE_NAME ('120005.STEP',
    '2019-06-14T02:49:57',
    ( '' ),
    ( '' ),
    'SwSTEP 2.0',
    'SolidWorks 2016',
    '' );
FILE_SCHEMA (( 'AUTOMOTIVE_DESIGN' ));
ENDSEC;

DATA;
#1 = SURFACE_SIDE_STYLE ('',( #3 ) ) ;
#2 = VERTEX_POINT ( 'NONE', #68 ) ;
#3 = SURFACE_STYLE_FILL_AREA ( #89 ) ;
#4 = PRODUCT_DEFINITION_CONTEXT ( 'detailed design', #40, 'design' ) ;
#5 = DIRECTION ( 'NONE',  ( 0.0000000000000000000, 0.0000000000000000000, 1.000000000000000000 ) ) ;
#6 = PLANE ( 'NONE',  #94 ) ;
#7 = FACE_OUTER_BOUND ( 'NONE', #143, .T. ) ;
#8 = AXIS2_PLACEMENT_3D ( 'NONE', #73, #34, #69 ) ;
#9 = DIRECTION ( 'NONE',  ( -1.000000000000000000, -0.0000000000000000000, -0.0000000000000000000 ) ) ;
#10 = DIRECTION ( 'NONE',  ( -1.000000000000000000, -0.0000000000000000000, -0.0000000000000000000 ) ) ;
#11 =( GEOMETRIC_REPRESENTATION_CONTEXT ( 3 ) GLOBAL_UNCERTAINTY_ASSIGNED_CONTEXT ( ( #62 ) ) GLOBAL_UNIT_ASSIGNED_CONTEXT ( ( #76, #92, #135 ) ) REPRESENTATION_CONTEXT ( 'NONE', 'WORKASPACE' ) );
#12 = EDGE_LOOP ( 'NONE', ( #173, #53, #157, #55, #31 ) ) ;
#13 =( LENGTH_UNIT ( ) NAMED_UNIT ( * ) SI_UNIT ( .MILLI., .METRE. ) );
#14 = EDGE_LOOP ( 'NONE', ( #149, #67, #101, #167 ) ) ;
#15 = PRODUCT ( '120005', '120005', '', ( #134 ) ) ;
#16 = ORIENTED_EDGE ( 'NONE', *, *, #77, .T. ) ;
#17 = EDGE_CURVE ( 'NONE', #160, #98, #137, .T. ) ;
#18 = CIRCLE ( 'NONE', #64, 3.150000000000001700 ) ;
#19 = DIRECTION ( 'NONE',  ( 0.0000000000000000000, 0.0000000000000000000, 1.000000000000000000 ) ) ;
#20 = EDGE_CURVE ( 'NONE', #45, #98, #43, .T. ) ;
#21 = FILL_AREA_STYLE_COLOUR ( '', #159 ) ;
#22 = COLOUR_RGB ( '',1.000000000000000000, 1.000000000000000000, 1.000000000000000000 ) ;
#23 = EDGE_CURVE ( 'NONE', #45, #2, #59, .T. ) ;
#24 = CIRCLE ( 'NONE', #8, 6.458908977479009800 ) ;
#25 = DIRECTION ( 'NONE',  ( 0.0000000000000000000, 0.0000000000000000000, -1.000000000000000000 ) ) ;
#26 = CARTESIAN_POINT ( 'NONE',  ( 30.13089545967769900, 13.04452057459747900, 0.0000000000000000000 ) ) ;
#27 = ORIENTED_EDGE ( 'NONE', *, *, #20, .T. ) ;
#28 = APPLICATION_PROTOCOL_DEFINITION ( 'draft international standard', 'automotive_design', 1998, #40 ) ;
#29 = ADVANCED_FACE ( 'NONE', ( #121 ), #176, .T. ) ;
#30 = CYLINDRICAL_SURFACE ( 'NONE', #119, 3.150000000000001700 ) ;
#31 = ORIENTED_EDGE ( 'NONE', *, *, #23, .T. ) ;
#32 = AXIS2_PLACEMENT_3D ( 'NONE', #132, #51, #61 ) ;
#33 = CARTESIAN_POINT ( 'NONE',  ( 21.22493055706841100, 13.04452057459747900, 3.150000000000001700 ) ) ;
#34 = DIRECTION ( 'NONE',  ( 0.0000000000000000000, 0.0000000000000000000, -1.000000000000000000 ) ) ;
#35 = CARTESIAN_POINT ( 'NONE',  ( 30.13089545967769900, 13.04452057459747900, 0.0000000000000000000 ) ) ;
#36 = SURFACE_STYLE_USAGE ( .BOTH. , #85 ) ;
#37 = CARTESIAN_POINT ( 'NONE',  ( 24.49218947520227700, 13.04452057459747900, 0.0000000000000000000 ) ) ;
#38 =( GEOMETRIC_REPRESENTATION_CONTEXT ( 3 ) GLOBAL_UNCERTAINTY_ASSIGNED_CONTEXT ( ( #81 ) ) GLOBAL_UNIT_ASSIGNED_CONTEXT ( ( #168, #93, #185 ) ) REPRESENTATION_CONTEXT ( 'NONE', 'WORKASPACE' ) );
#39 = PRODUCT_DEFINITION ( 'Î´Öª', '', #180, #4 ) ;
#40 = APPLICATION_CONTEXT ( 'automotive_design' ) ;
#41 = ADVANCED_FACE ( 'NONE', ( #130 ), #87, .F. ) ;
#42 = AXIS2_PLACEMENT_3D ( 'NONE', #178, #66, #5 ) ;
#43 = LINE ( 'NONE', #33, #65 ) ;
#44 = PRODUCT_RELATED_PRODUCT_CATEGORY ( 'part', '', ( #15 ) ) ;
#45 = VERTEX_POINT ( 'NONE', #161 ) ;
#46 = DIRECTION ( 'NONE',  ( 0.0000000000000000000, 0.0000000000000000000, 1.000000000000000000 ) ) ;
#47 = DIRECTION ( 'NONE',  ( -1.000000000000000000, -0.0000000000000000000, -0.0000000000000000000 ) ) ;
#48 = ORIENTED_EDGE ( 'NONE', *, *, #162, .F. ) ;
#49 = AXIS2_PLACEMENT_3D ( 'NONE', #104, #129, #116 ) ;
#50 = ORIENTED_EDGE ( 'NONE', *, *, #23, .F. ) ;
#51 = DIRECTION ( 'NONE',  ( 0.0000000000000000000, 0.0000000000000000000, 1.000000000000000000 ) ) ;
#52 = SPHERICAL_SURFACE ( 'NONE', #32, 6.458908977479009800 ) ;
#53 = ORIENTED_EDGE ( 'NONE', *, *, #162, .T. ) ;
#54 = EDGE_LOOP ( 'NONE', ( #48, #80, #158, #27, #79 ) ) ;
#55 = ORIENTED_EDGE ( 'NONE', *, *, #20, .F. ) ;
#56 = CARTESIAN_POINT ( 'NONE',  ( 23.67198648219869000, 13.04452057459747900, 0.0000000000000000000 ) ) ;
#57 = FILL_AREA_STYLE ('',( #182 ) ) ;
#58 = PRESENTATION_STYLE_ASSIGNMENT (( #36 ) ) ;
#59 = CIRCLE ( 'NONE', #42, 3.150000000000001700 ) ;
#60 =( NAMED_UNIT ( * ) SI_UNIT ( $, .STERADIAN. ) SOLID_ANGLE_UNIT ( ) );
#61 = DIRECTION ( 'NONE',  ( 0.0000000000000000000, -1.000000000000000000, 0.0000000000000000000 ) ) ;
#62 = UNCERTAINTY_MEASURE_WITH_UNIT (LENGTH_MEASURE( 1.000000000000000100E-005 ), #76, 'distance_accuracy_value', 'NONE');
#63 = FACE_OUTER_BOUND ( 'NONE', #14, .T. ) ;
#64 = AXIS2_PLACEMENT_3D ( 'NONE', #37, #70, #148 ) ;
#65 = VECTOR ( 'NONE', #47, 1000.000000000000000 ) ;
#66 = DIRECTION ( 'NONE',  ( -1.000000000000000000, -0.0000000000000000000, -0.0000000000000000000 ) ) ;
#67 = ORIENTED_EDGE ( 'NONE', *, *, #141, .T. ) ;
#68 = CARTESIAN_POINT ( 'NONE',  ( 24.49218947520227700, 16.19452057459748000, 3.857637417314165200E-016 ) ) ;
#69 = DIRECTION ( 'NONE',  ( -1.000000000000000000, 0.0000000000000000000, 0.0000000000000000000 ) ) ;
#70 = DIRECTION ( 'NONE',  ( -1.000000000000000000, -0.0000000000000000000, -0.0000000000000000000 ) ) ;
#71 = DIRECTION ( 'NONE',  ( 0.0000000000000000000, -1.000000000000000000, -1.224646799147353200E-016 ) ) ;
#72 = CARTESIAN_POINT ( 'NONE',  ( 24.49218947520227700, 13.04452057459747900, 0.0000000000000000000 ) ) ;
#73 = CARTESIAN_POINT ( 'NONE',  ( 30.13089545967769900, 13.04452057459747900, 0.0000000000000000000 ) ) ;
#74 = ORIENTED_EDGE ( 'NONE', *, *, #17, .T. ) ;
#75 = PRESENTATION_STYLE_ASSIGNMENT (( #169 ) ) ;
#76 =( LENGTH_UNIT ( ) NAMED_UNIT ( * ) SI_UNIT ( .MILLI., .METRE. ) );
#77 = EDGE_CURVE ( 'NONE', #174, #139, #24, .T. ) ;
#78 = ADVANCED_FACE ( 'NONE', ( #186 ), #30, .T. ) ;
#79 = ORIENTED_EDGE ( 'NONE', *, *, #17, .F. ) ;
#80 = ORIENTED_EDGE ( 'NONE', *, *, #96, .T. ) ;
#81 = UNCERTAINTY_MEASURE_WITH_UNIT (LENGTH_MEASURE( 1.000000000000000100E-005 ), #168, 'distance_accuracy_value', 'NONE');
#82 = CARTESIAN_POINT ( 'NONE',  ( 22.17218947520228100, 13.04452057459747900, 0.0000000000000000000 ) ) ;
#83 = DIRECTION ( 'NONE',  ( 0.0000000000000000000, 0.0000000000000000000, 1.000000000000000000 ) ) ;
#84 = DIRECTION ( 'NONE',  ( -1.000000000000000000, -0.0000000000000000000, -0.0000000000000000000 ) ) ;
#85 = SURFACE_SIDE_STYLE ('',( #123 ) ) ;
#86 = LINE ( 'NONE', #131, #172 ) ;
#87 = SPHERICAL_SURFACE ( 'NONE', #175, 6.458908977479009800 ) ;
#88 = DIRECTION ( 'NONE',  ( 0.0000000000000000000, 0.0000000000000000000, 1.000000000000000000 ) ) ;
#89 = FILL_AREA_STYLE ('',( #21 ) ) ;
#90 = AXIS2_PLACEMENT_3D ( 'NONE', #150, #9, #179 ) ;
#91 = VERTEX_POINT ( 'NONE', #114 ) ;
#92 =( NAMED_UNIT ( * ) PLANE_ANGLE_UNIT ( ) SI_UNIT ( $, .RADIAN. ) );
#93 =( NAMED_UNIT ( * ) PLANE_ANGLE_UNIT ( ) SI_UNIT ( $, .RADIAN. ) );
#94 = AXIS2_PLACEMENT_3D ( 'NONE', #103, #128, #25 ) ;
#95 = ORIENTED_EDGE ( 'NONE', *, *, #127, .F. ) ;
#96 = EDGE_CURVE ( 'NONE', #91, #174, #97, .T. ) ;
#97 = CIRCLE ( 'NONE', #90, 3.150000000000001700 ) ;
#98 = VERTEX_POINT ( 'NONE', #181 ) ;
#99 = UNCERTAINTY_MEASURE_WITH_UNIT (LENGTH_MEASURE( 1.000000000000000100E-005 ), #13, 'distance_accuracy_value', 'NONE');
#100 = STYLED_ITEM ( 'NONE', ( #75 ), #109 ) ;
#101 = ORIENTED_EDGE ( 'NONE', *, *, #77, .F. ) ;
#102 =( NAMED_UNIT ( * ) PLANE_ANGLE_UNIT ( ) SI_UNIT ( $, .RADIAN. ) );
#103 = CARTESIAN_POINT ( 'NONE',  ( 22.17218947520228100, 13.04452057459747900, 0.0000000000000000000 ) ) ;
#104 = CARTESIAN_POINT ( 'NONE',  ( 22.17218947520228100, 13.04452057459747900, 0.0000000000000000000 ) ) ;
#105 = SHAPE_DEFINITION_REPRESENTATION ( #183, #109 ) ;
#106 = DIRECTION ( 'NONE',  ( 1.000000000000000000, 0.0000000000000000000, 0.0000000000000000000 ) ) ;
#107 = EDGE_LOOP ( 'NONE', ( #133, #50, #95, #16 ) ) ;
#108 = PRESENTATION_LAYER_ASSIGNMENT (  '', '', ( #100 ) ) ;
#109 = ADVANCED_BREP_SHAPE_REPRESENTATION ( '120005', ( #155, #151 ), #38 ) ;
#110 = AXIS2_PLACEMENT_3D ( 'NONE', #35, #163, #71 ) ;
#111 = CLOSED_SHELL ( 'NONE', ( #29, #171, #41, #78, #138 ) ) ;
#112 = MECHANICAL_DESIGN_GEOMETRIC_PRESENTATION_REPRESENTATION (  '', ( #100 ), #11 ) ;
#113 = CARTESIAN_POINT ( 'NONE',  ( 21.22493055706841100, 13.04452057459747900, 0.0000000000000000000 ) ) ;
#114 = CARTESIAN_POINT ( 'NONE',  ( 24.49218947520227700, 13.04452057459747900, -3.150000000000001700 ) ) ;
#115 = EDGE_CURVE ( 'NONE', #2, #91, #124, .T. ) ;
#116 = DIRECTION ( 'NONE',  ( 0.0000000000000000000, 0.0000000000000000000, 1.000000000000000000 ) ) ;
#117 = DIRECTION ( 'NONE',  ( -1.000000000000000000, -0.0000000000000000000, -0.0000000000000000000 ) ) ;
#118 = DIRECTION ( 'NONE',  ( 0.0000000000000000000, 0.0000000000000000000, 1.000000000000000000 ) ) ;
#119 = AXIS2_PLACEMENT_3D ( 'NONE', #113, #84, #88 ) ;
#120 = STYLED_ITEM ( 'NONE', ( #58 ), #155 ) ;
#121 = FACE_OUTER_BOUND ( 'NONE', #12, .T. ) ;
#122 = EDGE_CURVE ( 'NONE', #98, #160, #153, .T. ) ;
#123 = SURFACE_STYLE_FILL_AREA ( #57 ) ;
#124 = CIRCLE ( 'NONE', #146, 3.150000000000001700 ) ;
#125 = ORIENTED_EDGE ( 'NONE', *, *, #122, .T. ) ;
#126 = DIRECTION ( 'NONE',  ( -1.000000000000000000, -0.0000000000000000000, -0.0000000000000000000 ) ) ;
#127 = EDGE_CURVE ( 'NONE', #174, #45, #18, .T. ) ;
#128 = DIRECTION ( 'NONE',  ( 1.000000000000000000, 0.0000000000000000000, 0.0000000000000000000 ) ) ;
#129 = DIRECTION ( 'NONE',  ( -1.000000000000000000, -0.0000000000000000000, -0.0000000000000000000 ) ) ;
#130 = FACE_OUTER_BOUND ( 'NONE', #107, .T. ) ;
#131 = CARTESIAN_POINT ( 'NONE',  ( 21.22493055706841100, 13.04452057459747900, -3.150000000000001700 ) ) ;
#132 = CARTESIAN_POINT ( 'NONE',  ( 30.13089545967769900, 13.04452057459747900, 0.0000000000000000000 ) ) ;
#133 = ORIENTED_EDGE ( 'NONE', *, *, #141, .F. ) ;
#134 = PRODUCT_CONTEXT ( 'NONE', #170, 'mechanical' ) ;
#135 =( NAMED_UNIT ( * ) SI_UNIT ( $, .STERADIAN. ) SOLID_ANGLE_UNIT ( ) );
#136 = AXIS2_PLACEMENT_3D ( 'NONE', #82, #126, #46 ) ;
#137 = CIRCLE ( 'NONE', #136, 3.150000000000001700 ) ;
#138 = ADVANCED_FACE ( 'NONE', ( #7 ), #6, .F. ) ;
#139 = VERTEX_POINT ( 'NONE', #56 ) ;
#140 = AXIS2_PLACEMENT_3D ( 'NONE', #142, #144, #19 ) ;
#141 = EDGE_CURVE ( 'NONE', #2, #139, #164, .T. ) ;
#142 = CARTESIAN_POINT ( 'NONE',  ( 21.22493055706841100, 13.04452057459747900, 0.0000000000000000000 ) ) ;
#143 = EDGE_LOOP ( 'NONE', ( #125, #74 ) ) ;
#144 = DIRECTION ( 'NONE',  ( -1.000000000000000000, -0.0000000000000000000, -0.0000000000000000000 ) ) ;
#145 = CARTESIAN_POINT ( 'NONE',  ( 22.17218947520228100, 13.04452057459747900, -3.150000000000001700 ) ) ;
#146 = AXIS2_PLACEMENT_3D ( 'NONE', #72, #10, #83 ) ;
#147 = DIRECTION ( 'NONE',  ( 0.0000000000000000000, 0.0000000000000000000, 1.000000000000000000 ) ) ;
#148 = DIRECTION ( 'NONE',  ( 0.0000000000000000000, 0.0000000000000000000, 1.000000000000000000 ) ) ;
#149 = ORIENTED_EDGE ( 'NONE', *, *, #115, .F. ) ;
#150 = CARTESIAN_POINT ( 'NONE',  ( 24.49218947520227700, 13.04452057459747900, 0.0000000000000000000 ) ) ;
#151 = AXIS2_PLACEMENT_3D ( 'NONE', #184, #118, #106 ) ;
#152 = CARTESIAN_POINT ( 'NONE',  ( 24.49218947520227700, 9.894520574597477100, 0.0000000000000000000 ) ) ;
#153 = CIRCLE ( 'NONE', #49, 3.150000000000001700 ) ;
#154 = APPLICATION_PROTOCOL_DEFINITION ( 'draft international standard', 'automotive_design', 1998, #170 ) ;
#155 = MANIFOLD_SOLID_BREP ( 'Ðý×ª1', #111 ) ;
#156 = PRESENTATION_LAYER_ASSIGNMENT (  '', '', ( #120 ) ) ;
#157 = ORIENTED_EDGE ( 'NONE', *, *, #122, .F. ) ;
#158 = ORIENTED_EDGE ( 'NONE', *, *, #127, .T. ) ;
#159 = COLOUR_RGB ( '',1.000000000000000000, 1.000000000000000000, 1.000000000000000000 ) ;
#160 = VERTEX_POINT ( 'NONE', #145 ) ;
#161 = CARTESIAN_POINT ( 'NONE',  ( 24.49218947520227700, 13.04452057459747900, 3.150000000000001700 ) ) ;
#162 = EDGE_CURVE ( 'NONE', #91, #160, #86, .T. ) ;
#163 = DIRECTION ( 'NONE',  ( 0.0000000000000000000, -1.224646799147353200E-016, 1.000000000000000000 ) ) ;
#164 = CIRCLE ( 'NONE', #110, 6.458908977479009800 ) ;
#165 = DIRECTION ( 'NONE',  ( 0.0000000000000000000, -1.000000000000000000, 0.0000000000000000000 ) ) ;
#166 = MECHANICAL_DESIGN_GEOMETRIC_PRESENTATION_REPRESENTATION (  '', ( #120 ), #177 ) ;
#167 = ORIENTED_EDGE ( 'NONE', *, *, #96, .F. ) ;
#168 =( LENGTH_UNIT ( ) NAMED_UNIT ( * ) SI_UNIT ( .MILLI., .METRE. ) );
#169 = SURFACE_STYLE_USAGE ( .BOTH. , #1 ) ;
#170 = APPLICATION_CONTEXT ( 'automotive_design' ) ;
#171 = ADVANCED_FACE ( 'NONE', ( #63 ), #52, .F. ) ;
#172 = VECTOR ( 'NONE', #117, 1000.000000000000000 ) ;
#173 = ORIENTED_EDGE ( 'NONE', *, *, #115, .T. ) ;
#174 = VERTEX_POINT ( 'NONE', #152 ) ;
#175 = AXIS2_PLACEMENT_3D ( 'NONE', #26, #147, #165 ) ;
#176 = CYLINDRICAL_SURFACE ( 'NONE', #140, 3.150000000000001700 ) ;
#177 =( GEOMETRIC_REPRESENTATION_CONTEXT ( 3 ) GLOBAL_UNCERTAINTY_ASSIGNED_CONTEXT ( ( #99 ) ) GLOBAL_UNIT_ASSIGNED_CONTEXT ( ( #13, #102, #60 ) ) REPRESENTATION_CONTEXT ( 'NONE', 'WORKASPACE' ) );
#178 = CARTESIAN_POINT ( 'NONE',  ( 24.49218947520227700, 13.04452057459747900, 0.0000000000000000000 ) ) ;
#179 = DIRECTION ( 'NONE',  ( 0.0000000000000000000, 0.0000000000000000000, 1.000000000000000000 ) ) ;
#180 = PRODUCT_DEFINITION_FORMATION_WITH_SPECIFIED_SOURCE ( 'ÈÎºÎ', '', #15, .NOT_KNOWN. ) ;
#181 = CARTESIAN_POINT ( 'NONE',  ( 22.17218947520228100, 13.04452057459747900, 3.150000000000001700 ) ) ;
#182 = FILL_AREA_STYLE_COLOUR ( '', #22 ) ;
#183 = PRODUCT_DEFINITION_SHAPE ( 'NONE', 'NONE',  #39 ) ;
#184 = CARTESIAN_POINT ( 'NONE',  ( 0.0000000000000000000, 0.0000000000000000000, 0.0000000000000000000 ) ) ;
#185 =( NAMED_UNIT ( * ) SI_UNIT ( $, .STERADIAN. ) SOLID_ANGLE_UNIT ( ) );
#186 = FACE_OUTER_BOUND ( 'NONE', #54, .T. ) ;
ENDSEC;
END-ISO-10303-21;
