ISO-10303-21;
HEADER;
FILE_DESCRIPTION (( 'STEP AP214' ),
    '1' );
FILE_NAME ('120011.STEP',
    '2019-06-14T05:25:08',
    ( '' ),
    ( '' ),
    'SwSTEP 2.0',
    'SolidWorks 2016',
    '' );
FILE_SCHEMA (( 'AUTOMOTIVE_DESIGN' ));
ENDSEC;

DATA;
#1 = APPLICATION_CONTEXT ( 'automotive_design' ) ;
#2 = PRESENTATION_STYLE_ASSIGNMENT (( #155 ) ) ;
#3 = CARTESIAN_POINT ( 'NONE',  ( 47.50958549791028700, 31.08904114919496200, 6.123233995736770200E-016 ) ) ;
#4 = VERTEX_POINT ( 'NONE', #3 ) ;
#5 = CARTESIAN_POINT ( 'NONE',  ( 54.06104286391907700, 26.08904114919495900, 0.0000000000000000000 ) ) ;
#6 = MANIFOLD_SOLID_BREP ( 'Ðý×ª1', #67 ) ;
#7 = EDGE_CURVE ( 'NONE', #23, #4, #162, .T. ) ;
#8 = ORIENTED_EDGE ( 'NONE', *, *, #181, .F. ) ;
#9 =( NAMED_UNIT ( * ) PLANE_ANGLE_UNIT ( ) SI_UNIT ( $, .RADIAN. ) );
#10 = FACE_OUTER_BOUND ( 'NONE', #38, .T. ) ;
#11 = PRESENTATION_LAYER_ASSIGNMENT (  '', '', ( #58 ) ) ;
#12 = ORIENTED_EDGE ( 'NONE', *, *, #120, .F. ) ;
#13 = APPLICATION_PROTOCOL_DEFINITION ( 'draft international standard', 'automotive_design', 1998, #1 ) ;
#14 = DIRECTION ( 'NONE',  ( 1.000000000000000000, 0.0000000000000000000, 0.0000000000000000000 ) ) ;
#15 = PRODUCT_DEFINITION_SHAPE ( 'NONE', 'NONE',  #125 ) ;
#16 = VECTOR ( 'NONE', #149, 1000.000000000000000 ) ;
#17 = DIRECTION ( 'NONE',  ( 0.0000000000000000000, 0.0000000000000000000, -1.000000000000000000 ) ) ;
#18 = EDGE_CURVE ( 'NONE', #20, #97, #131, .T. ) ;
#19 = DIRECTION ( 'NONE',  ( -1.000000000000000000, -0.0000000000000000000, -0.0000000000000000000 ) ) ;
#20 = VERTEX_POINT ( 'NONE', #180 ) ;
#21 = CIRCLE ( 'NONE', #22, 5.000000000000000900 ) ;
#22 = AXIS2_PLACEMENT_3D ( 'NONE', #177, #85, #33 ) ;
#23 = VERTEX_POINT ( 'NONE', #25 ) ;
#24 = MECHANICAL_DESIGN_GEOMETRIC_PRESENTATION_REPRESENTATION (  '', ( #58 ), #36 ) ;
#25 = CARTESIAN_POINT ( 'NONE',  ( 47.50958549791028700, 26.08904114919495900, 5.000000000000000900 ) ) ;
#26 = COLOUR_RGB ( '',1.000000000000000000, 1.000000000000000000, 1.000000000000000000 ) ;
#27 = DIRECTION ( 'NONE',  ( 0.0000000000000000000, 0.0000000000000000000, 1.000000000000000000 ) ) ;
#28 = ORIENTED_EDGE ( 'NONE', *, *, #18, .F. ) ;
#29 = DIRECTION ( 'NONE',  ( -1.000000000000000000, -0.0000000000000000000, -0.0000000000000000000 ) ) ;
#30 = SURFACE_SIDE_STYLE ('',( #102 ) ) ;
#31 = EDGE_LOOP ( 'NONE', ( #60, #141 ) ) ;
#32 = CARTESIAN_POINT ( 'NONE',  ( 47.50958549791028700, 26.08904114919495900, 0.0000000000000000000 ) ) ;
#33 = DIRECTION ( 'NONE',  ( 0.0000000000000000000, 0.0000000000000000000, 1.000000000000000000 ) ) ;
#34 = CARTESIAN_POINT ( 'NONE',  ( 42.44986111413682300, 26.08904114919495900, 0.0000000000000000000 ) ) ;
#35 = PRODUCT_CONTEXT ( 'NONE', #1, 'mechanical' ) ;
#36 =( GEOMETRIC_REPRESENTATION_CONTEXT ( 3 ) GLOBAL_UNCERTAINTY_ASSIGNED_CONTEXT ( ( #103 ) ) GLOBAL_UNIT_ASSIGNED_CONTEXT ( ( #182, #9, #106 ) ) REPRESENTATION_CONTEXT ( 'NONE', 'WORKASPACE' ) );
#37 = CIRCLE ( 'NONE', #118, 8.241455794859964700 ) ;
#38 = EDGE_LOOP ( 'NONE', ( #105, #90, #82, #163 ) ) ;
#39 = EDGE_CURVE ( 'NONE', #20, #23, #170, .T. ) ;
#40 = DIRECTION ( 'NONE',  ( -1.000000000000000000, -0.0000000000000000000, -0.0000000000000000000 ) ) ;
#41 = ADVANCED_BREP_SHAPE_REPRESENTATION ( '120011', ( #6, #100 ), #76 ) ;
#42 = SURFACE_STYLE_USAGE ( .BOTH. , #30 ) ;
#43 =( NAMED_UNIT ( * ) SI_UNIT ( $, .STERADIAN. ) SOLID_ANGLE_UNIT ( ) );
#44 = DIRECTION ( 'NONE',  ( 0.0000000000000000000, -1.224646799147353200E-016, 1.000000000000000000 ) ) ;
#45 = ORIENTED_EDGE ( 'NONE', *, *, #39, .T. ) ;
#46 =( LENGTH_UNIT ( ) NAMED_UNIT ( * ) SI_UNIT ( .MILLI., .METRE. ) );
#47 = DIRECTION ( 'NONE',  ( 1.000000000000000000, 0.0000000000000000000, 0.0000000000000000000 ) ) ;
#48 = EDGE_LOOP ( 'NONE', ( #8, #94, #28, #166 ) ) ;
#49 = ORIENTED_EDGE ( 'NONE', *, *, #142, .T. ) ;
#50 = CARTESIAN_POINT ( 'NONE',  ( 47.50958549791028700, 26.08904114919495900, 0.0000000000000000000 ) ) ;
#51 = LINE ( 'NONE', #129, #75 ) ;
#52 = ADVANCED_FACE ( 'NONE', ( #65 ), #54, .T. ) ;
#53 = SHAPE_DEFINITION_REPRESENTATION ( #15, #41 ) ;
#54 = CYLINDRICAL_SURFACE ( 'NONE', #161, 5.000000000000000900 ) ;
#55 = VERTEX_POINT ( 'NONE', #173 ) ;
#56 =( LENGTH_UNIT ( ) NAMED_UNIT ( * ) SI_UNIT ( .MILLI., .METRE. ) );
#57 = ADVANCED_FACE ( 'NONE', ( #116 ), #126, .F. ) ;
#58 = STYLED_ITEM ( 'NONE', ( #2 ), #6 ) ;
#59 = CIRCLE ( 'NONE', #185, 5.000000000000000900 ) ;
#60 = ORIENTED_EDGE ( 'NONE', *, *, #95, .T. ) ;
#61 = AXIS2_PLACEMENT_3D ( 'NONE', #93, #29, #27 ) ;
#62 = PRESENTATION_STYLE_ASSIGNMENT (( #42 ) ) ;
#63 = COLOUR_RGB ( '',1.000000000000000000, 1.000000000000000000, 1.000000000000000000 ) ;
#64 = CARTESIAN_POINT ( 'NONE',  ( 54.06104286391907700, 26.08904114919495900, 0.0000000000000000000 ) ) ;
#65 = FACE_OUTER_BOUND ( 'NONE', #121, .T. ) ;
#66 = CARTESIAN_POINT ( 'NONE',  ( 44.31958549791029600, 26.08904114919495900, 0.0000000000000000000 ) ) ;
#67 = CLOSED_SHELL ( 'NONE', ( #171, #57, #73, #52, #132 ) ) ;
#68 = DIRECTION ( 'NONE',  ( 0.0000000000000000000, 0.0000000000000000000, 1.000000000000000000 ) ) ;
#69 = AXIS2_PLACEMENT_3D ( 'NONE', #5, #81, #144 ) ;
#70 = FACE_OUTER_BOUND ( 'NONE', #31, .T. ) ;
#71 = DIRECTION ( 'NONE',  ( -1.000000000000000000, -0.0000000000000000000, -0.0000000000000000000 ) ) ;
#72 = DIRECTION ( 'NONE',  ( -1.000000000000000000, -0.0000000000000000000, -0.0000000000000000000 ) ) ;
#73 = ADVANCED_FACE ( 'NONE', ( #10 ), #165, .F. ) ;
#74 = CARTESIAN_POINT ( 'NONE',  ( 0.0000000000000000000, 0.0000000000000000000, 0.0000000000000000000 ) ) ;
#75 = VECTOR ( 'NONE', #19, 1000.000000000000000 ) ;
#76 =( GEOMETRIC_REPRESENTATION_CONTEXT ( 3 ) GLOBAL_UNCERTAINTY_ASSIGNED_CONTEXT ( ( #137 ) ) GLOBAL_UNIT_ASSIGNED_CONTEXT ( ( #46, #151, #43 ) ) REPRESENTATION_CONTEXT ( 'NONE', 'WORKASPACE' ) );
#77 =( GEOMETRIC_REPRESENTATION_CONTEXT ( 3 ) GLOBAL_UNCERTAINTY_ASSIGNED_CONTEXT ( ( #183 ) ) GLOBAL_UNIT_ASSIGNED_CONTEXT ( ( #56, #96, #114 ) ) REPRESENTATION_CONTEXT ( 'NONE', 'WORKASPACE' ) );
#78 = EDGE_LOOP ( 'NONE', ( #92, #83, #145, #160, #127 ) ) ;
#79 = DIRECTION ( 'NONE',  ( 0.0000000000000000000, 0.0000000000000000000, 1.000000000000000000 ) ) ;
#80 = DIRECTION ( 'NONE',  ( -1.000000000000000000, -0.0000000000000000000, -0.0000000000000000000 ) ) ;
#81 = DIRECTION ( 'NONE',  ( 0.0000000000000000000, 0.0000000000000000000, 1.000000000000000000 ) ) ;
#82 = ORIENTED_EDGE ( 'NONE', *, *, #39, .F. ) ;
#83 = ORIENTED_EDGE ( 'NONE', *, *, #167, .T. ) ;
#84 = AXIS2_PLACEMENT_3D ( 'NONE', #66, #122, #79 ) ;
#85 = DIRECTION ( 'NONE',  ( -1.000000000000000000, -0.0000000000000000000, -0.0000000000000000000 ) ) ;
#86 = DIRECTION ( 'NONE',  ( 0.0000000000000000000, 0.0000000000000000000, 1.000000000000000000 ) ) ;
#87 = AXIS2_PLACEMENT_3D ( 'NONE', #64, #101, #158 ) ;
#88 = AXIS2_PLACEMENT_3D ( 'NONE', #50, #40, #169 ) ;
#89 = LINE ( 'NONE', #152, #16 ) ;
#90 = ORIENTED_EDGE ( 'NONE', *, *, #7, .F. ) ;
#91 = MECHANICAL_DESIGN_GEOMETRIC_PRESENTATION_REPRESENTATION (  '', ( #148 ), #77 ) ;
#92 = ORIENTED_EDGE ( 'NONE', *, *, #181, .T. ) ;
#93 = CARTESIAN_POINT ( 'NONE',  ( 47.50958549791028700, 26.08904114919495900, 0.0000000000000000000 ) ) ;
#94 = ORIENTED_EDGE ( 'NONE', *, *, #136, .T. ) ;
#95 = EDGE_CURVE ( 'NONE', #154, #119, #135, .T. ) ;
#96 =( NAMED_UNIT ( * ) PLANE_ANGLE_UNIT ( ) SI_UNIT ( $, .RADIAN. ) );
#97 = VERTEX_POINT ( 'NONE', #172 ) ;
#98 = FILL_AREA_STYLE_COLOUR ( '', #63 ) ;
#99 = AXIS2_PLACEMENT_3D ( 'NONE', #34, #71, #134 ) ;
#100 = AXIS2_PLACEMENT_3D ( 'NONE', #74, #86, #47 ) ;
#101 = DIRECTION ( 'NONE',  ( 0.0000000000000000000, 0.0000000000000000000, -1.000000000000000000 ) ) ;
#102 = SURFACE_STYLE_FILL_AREA ( #110 ) ;
#103 = UNCERTAINTY_MEASURE_WITH_UNIT (LENGTH_MEASURE( 1.000000000000000100E-005 ), #182, 'distance_accuracy_value', 'NONE');
#104 = CARTESIAN_POINT ( 'NONE',  ( 44.31958549791029600, 26.08904114919495900, -5.000000000000000900 ) ) ;
#105 = ORIENTED_EDGE ( 'NONE', *, *, #136, .F. ) ;
#106 =( NAMED_UNIT ( * ) SI_UNIT ( $, .STERADIAN. ) SOLID_ANGLE_UNIT ( ) );
#107 = AXIS2_PLACEMENT_3D ( 'NONE', #108, #68, #168 ) ;
#108 = CARTESIAN_POINT ( 'NONE',  ( 54.06104286391907700, 26.08904114919495900, 0.0000000000000000000 ) ) ;
#109 = PRODUCT_DEFINITION_CONTEXT ( 'detailed design', #115, 'design' ) ;
#110 = FILL_AREA_STYLE ('',( #164 ) ) ;
#111 = CARTESIAN_POINT ( 'NONE',  ( 44.31958549791029600, 26.08904114919495900, 0.0000000000000000000 ) ) ;
#112 = DIRECTION ( 'NONE',  ( 0.0000000000000000000, 0.0000000000000000000, 1.000000000000000000 ) ) ;
#113 = CARTESIAN_POINT ( 'NONE',  ( 44.31958549791029600, 26.08904114919495900, 0.0000000000000000000 ) ) ;
#114 =( NAMED_UNIT ( * ) SI_UNIT ( $, .STERADIAN. ) SOLID_ANGLE_UNIT ( ) );
#115 = APPLICATION_CONTEXT ( 'automotive_design' ) ;
#116 = FACE_OUTER_BOUND ( 'NONE', #48, .T. ) ;
#117 = FILL_AREA_STYLE ('',( #98 ) ) ;
#118 = AXIS2_PLACEMENT_3D ( 'NONE', #133, #44, #147 ) ;
#119 = VERTEX_POINT ( 'NONE', #104 ) ;
#120 = EDGE_CURVE ( 'NONE', #119, #154, #140, .T. ) ;
#121 = EDGE_LOOP ( 'NONE', ( #179, #139, #45, #49, #12 ) ) ;
#122 = DIRECTION ( 'NONE',  ( -1.000000000000000000, -0.0000000000000000000, -0.0000000000000000000 ) ) ;
#123 = PLANE ( 'NONE',  #130 ) ;
#124 = FACE_OUTER_BOUND ( 'NONE', #78, .T. ) ;
#125 = PRODUCT_DEFINITION ( 'Î´Öª', '', #178, #109 ) ;
#126 = SPHERICAL_SURFACE ( 'NONE', #69, 8.241455794859964700 ) ;
#127 = ORIENTED_EDGE ( 'NONE', *, *, #7, .T. ) ;
#128 = PRESENTATION_LAYER_ASSIGNMENT (  '', '', ( #148 ) ) ;
#129 = CARTESIAN_POINT ( 'NONE',  ( 42.44986111413682300, 26.08904114919495900, 5.000000000000000900 ) ) ;
#130 = AXIS2_PLACEMENT_3D ( 'NONE', #111, #14, #17 ) ;
#131 = CIRCLE ( 'NONE', #87, 8.241455794859964700 ) ;
#132 = ADVANCED_FACE ( 'NONE', ( #70 ), #123, .F. ) ;
#133 = CARTESIAN_POINT ( 'NONE',  ( 54.06104286391907700, 26.08904114919495900, 0.0000000000000000000 ) ) ;
#134 = DIRECTION ( 'NONE',  ( 0.0000000000000000000, 0.0000000000000000000, 1.000000000000000000 ) ) ;
#135 = CIRCLE ( 'NONE', #84, 5.000000000000000900 ) ;
#136 = EDGE_CURVE ( 'NONE', #4, #97, #37, .T. ) ;
#137 = UNCERTAINTY_MEASURE_WITH_UNIT (LENGTH_MEASURE( 1.000000000000000100E-005 ), #46, 'distance_accuracy_value', 'NONE');
#138 = EDGE_CURVE ( 'NONE', #55, #20, #21, .T. ) ;
#139 = ORIENTED_EDGE ( 'NONE', *, *, #138, .T. ) ;
#140 = CIRCLE ( 'NONE', #150, 5.000000000000000900 ) ;
#141 = ORIENTED_EDGE ( 'NONE', *, *, #120, .T. ) ;
#142 = EDGE_CURVE ( 'NONE', #23, #154, #51, .T. ) ;
#143 = PRODUCT ( '120011', '120011', '', ( #35 ) ) ;
#144 = DIRECTION ( 'NONE',  ( 0.0000000000000000000, -1.000000000000000000, 0.0000000000000000000 ) ) ;
#145 = ORIENTED_EDGE ( 'NONE', *, *, #95, .F. ) ;
#146 = CARTESIAN_POINT ( 'NONE',  ( 44.31958549791029600, 26.08904114919495900, 5.000000000000000900 ) ) ;
#147 = DIRECTION ( 'NONE',  ( 0.0000000000000000000, -1.000000000000000000, -1.224646799147353200E-016 ) ) ;
#148 = STYLED_ITEM ( 'NONE', ( #62 ), #41 ) ;
#149 = DIRECTION ( 'NONE',  ( -1.000000000000000000, -0.0000000000000000000, -0.0000000000000000000 ) ) ;
#150 = AXIS2_PLACEMENT_3D ( 'NONE', #113, #72, #112 ) ;
#151 =( NAMED_UNIT ( * ) PLANE_ANGLE_UNIT ( ) SI_UNIT ( $, .RADIAN. ) );
#152 = CARTESIAN_POINT ( 'NONE',  ( 42.44986111413682300, 26.08904114919495900, -5.000000000000000900 ) ) ;
#153 = APPLICATION_PROTOCOL_DEFINITION ( 'draft international standard', 'automotive_design', 1998, #115 ) ;
#154 = VERTEX_POINT ( 'NONE', #146 ) ;
#155 = SURFACE_STYLE_USAGE ( .BOTH. , #156 ) ;
#156 = SURFACE_SIDE_STYLE ('',( #175 ) ) ;
#157 = CARTESIAN_POINT ( 'NONE',  ( 42.44986111413682300, 26.08904114919495900, 0.0000000000000000000 ) ) ;
#158 = DIRECTION ( 'NONE',  ( -1.000000000000000000, 0.0000000000000000000, 0.0000000000000000000 ) ) ;
#159 = CYLINDRICAL_SURFACE ( 'NONE', #99, 5.000000000000000900 ) ;
#160 = ORIENTED_EDGE ( 'NONE', *, *, #142, .F. ) ;
#161 = AXIS2_PLACEMENT_3D ( 'NONE', #157, #80, #184 ) ;
#162 = CIRCLE ( 'NONE', #61, 5.000000000000000900 ) ;
#163 = ORIENTED_EDGE ( 'NONE', *, *, #18, .T. ) ;
#164 = FILL_AREA_STYLE_COLOUR ( '', #26 ) ;
#165 = SPHERICAL_SURFACE ( 'NONE', #107, 8.241455794859964700 ) ;
#166 = ORIENTED_EDGE ( 'NONE', *, *, #138, .F. ) ;
#167 = EDGE_CURVE ( 'NONE', #55, #119, #89, .T. ) ;
#168 = DIRECTION ( 'NONE',  ( 0.0000000000000000000, -1.000000000000000000, 0.0000000000000000000 ) ) ;
#169 = DIRECTION ( 'NONE',  ( 0.0000000000000000000, 0.0000000000000000000, 1.000000000000000000 ) ) ;
#170 = CIRCLE ( 'NONE', #88, 5.000000000000000900 ) ;
#171 = ADVANCED_FACE ( 'NONE', ( #124 ), #159, .T. ) ;
#172 = CARTESIAN_POINT ( 'NONE',  ( 45.81958706905911800, 26.08904114919495900, 0.0000000000000000000 ) ) ;
#173 = CARTESIAN_POINT ( 'NONE',  ( 47.50958549791028700, 26.08904114919495900, -5.000000000000000900 ) ) ;
#174 = DIRECTION ( 'NONE',  ( 0.0000000000000000000, 0.0000000000000000000, 1.000000000000000000 ) ) ;
#175 = SURFACE_STYLE_FILL_AREA ( #117 ) ;
#176 = DIRECTION ( 'NONE',  ( -1.000000000000000000, -0.0000000000000000000, -0.0000000000000000000 ) ) ;
#177 = CARTESIAN_POINT ( 'NONE',  ( 47.50958549791028700, 26.08904114919495900, 0.0000000000000000000 ) ) ;
#178 = PRODUCT_DEFINITION_FORMATION_WITH_SPECIFIED_SOURCE ( 'ÈÎºÎ', '', #143, .NOT_KNOWN. ) ;
#179 = ORIENTED_EDGE ( 'NONE', *, *, #167, .F. ) ;
#180 = CARTESIAN_POINT ( 'NONE',  ( 47.50958549791028700, 21.08904114919495500, 0.0000000000000000000 ) ) ;
#181 = EDGE_CURVE ( 'NONE', #4, #55, #59, .T. ) ;
#182 =( LENGTH_UNIT ( ) NAMED_UNIT ( * ) SI_UNIT ( .MILLI., .METRE. ) );
#183 = UNCERTAINTY_MEASURE_WITH_UNIT (LENGTH_MEASURE( 1.000000000000000100E-005 ), #56, 'distance_accuracy_value', 'NONE');
#184 = DIRECTION ( 'NONE',  ( 0.0000000000000000000, 0.0000000000000000000, 1.000000000000000000 ) ) ;
#185 = AXIS2_PLACEMENT_3D ( 'NONE', #32, #176, #174 ) ;
#186 = PRODUCT_RELATED_PRODUCT_CATEGORY ( 'part', '', ( #143 ) ) ;
ENDSEC;
END-ISO-10303-21;
