ISO-10303-21;
HEADER;
FILE_DESCRIPTION (( 'STEP AP214' ),
    '1' );
FILE_NAME ('120018.STEP',
    '2019-06-14T06:13:02',
    ( '' ),
    ( '' ),
    'SwSTEP 2.0',
    'SolidWorks 2016',
    '' );
FILE_SCHEMA (( 'AUTOMOTIVE_DESIGN' ));
ENDSEC;

DATA;
#1 = UNCERTAINTY_MEASURE_WITH_UNIT (LENGTH_MEASURE( 1.000000000000000100E-005 ), #160, 'distance_accuracy_value', 'NONE');
#2 = CIRCLE ( 'NONE', #148, 5.000000000000000900 ) ;
#3 = LINE ( 'NONE', #72, #153 ) ;
#4 = ORIENTED_EDGE ( 'NONE', *, *, #28, .T. ) ;
#5 = PRODUCT_DEFINITION_SHAPE ( 'NONE', 'NONE',  #163 ) ;
#6 = DIRECTION ( 'NONE',  ( -1.000000000000000000, -0.0000000000000000000, -0.0000000000000000000 ) ) ;
#7 = EDGE_LOOP ( 'NONE', ( #138, #66, #113, #173 ) ) ;
#8 =( LENGTH_UNIT ( ) NAMED_UNIT ( * ) SI_UNIT ( .MILLI., .METRE. ) );
#9 = ADVANCED_FACE ( 'NONE', ( #29 ), #176, .T. ) ;
#10 = DIRECTION ( 'NONE',  ( -1.000000000000000000, -0.0000000000000000000, -0.0000000000000000000 ) ) ;
#11 = PRESENTATION_STYLE_ASSIGNMENT (( #101 ) ) ;
#12 = PRODUCT_CONTEXT ( 'NONE', #146, 'mechanical' ) ;
#13 = EDGE_LOOP ( 'NONE', ( #92, #156, #123, #177 ) ) ;
#14 = EDGE_LOOP ( 'NONE', ( #40, #81, #167, #132, #27 ) ) ;
#15 = AXIS2_PLACEMENT_3D ( 'NONE', #169, #124, #100 ) ;
#16 = DIRECTION ( 'NONE',  ( 0.0000000000000000000, 0.0000000000000000000, 1.000000000000000000 ) ) ;
#17 = DIRECTION ( 'NONE',  ( -1.000000000000000000, -0.0000000000000000000, -0.0000000000000000000 ) ) ;
#18 = CARTESIAN_POINT ( 'NONE',  ( 46.05958549791029800, 21.08904114919498700, 0.0000000000000000000 ) ) ;
#19 =( NAMED_UNIT ( * ) SI_UNIT ( $, .STERADIAN. ) SOLID_ANGLE_UNIT ( ) );
#20 =( NAMED_UNIT ( * ) PLANE_ANGLE_UNIT ( ) SI_UNIT ( $, .RADIAN. ) );
#21 = ADVANCED_FACE ( 'NONE', ( #154 ), #109, .T. ) ;
#22 =( LENGTH_UNIT ( ) NAMED_UNIT ( * ) SI_UNIT ( .MILLI., .METRE. ) );
#23 = CARTESIAN_POINT ( 'NONE',  ( 46.05958549791029800, 26.08904114919495900, 5.000000000000000900 ) ) ;
#24 = CARTESIAN_POINT ( 'NONE',  ( 46.05958549791029800, 26.08904114919495900, -5.000000000000000900 ) ) ;
#25 = CIRCLE ( 'NONE', #102, 5.000000000000000900 ) ;
#26 = EDGE_LOOP ( 'NONE', ( #168, #4, #77, #174, #33 ) ) ;
#27 = ORIENTED_EDGE ( 'NONE', *, *, #73, .T. ) ;
#28 = EDGE_CURVE ( 'NONE', #134, #45, #149, .T. ) ;
#29 = FACE_OUTER_BOUND ( 'NONE', #26, .T. ) ;
#30 = CIRCLE ( 'NONE', #91, 5.000000000000000900 ) ;
#31 = DIRECTION ( 'NONE',  ( -1.000000000000000000, -0.0000000000000000000, -0.0000000000000000000 ) ) ;
#32 = DIRECTION ( 'NONE',  ( 0.0000000000000000000, 0.0000000000000000000, 1.000000000000000000 ) ) ;
#33 = ORIENTED_EDGE ( 'NONE', *, *, #150, .F. ) ;
#34 =( NAMED_UNIT ( * ) SI_UNIT ( $, .STERADIAN. ) SOLID_ANGLE_UNIT ( ) );
#35 = VECTOR ( 'NONE', #110, 1000.000000000000000 ) ;
#36 = DIRECTION ( 'NONE',  ( 0.0000000000000000000, 0.0000000000000000000, 1.000000000000000000 ) ) ;
#37 = EDGE_CURVE ( 'NONE', #122, #142, #140, .T. ) ;
#38 = CARTESIAN_POINT ( 'NONE',  ( 44.31958549791029600, 26.08904114919495900, 0.0000000000000000000 ) ) ;
#39 = AXIS2_PLACEMENT_3D ( 'NONE', #107, #62, #145 ) ;
#40 = ORIENTED_EDGE ( 'NONE', *, *, #55, .T. ) ;
#41 = AXIS2_PLACEMENT_3D ( 'NONE', #99, #17, #16 ) ;
#42 = SPHERICAL_SURFACE ( 'NONE', #104, 52.20335801036089400 ) ;
#43 = DIRECTION ( 'NONE',  ( 0.0000000000000000000, 0.0000000000000000000, 1.000000000000000000 ) ) ;
#44 = CIRCLE ( 'NONE', #39, 52.20335801036089400 ) ;
#45 = VERTEX_POINT ( 'NONE', #18 ) ;
#46 = AXIS2_PLACEMENT_3D ( 'NONE', #88, #36, #186 ) ;
#47 = DIRECTION ( 'NONE',  ( 0.0000000000000000000, -1.000000000000000000, 0.0000000000000000000 ) ) ;
#48 = DIRECTION ( 'NONE',  ( -1.000000000000000000, -0.0000000000000000000, -0.0000000000000000000 ) ) ;
#49 = FACE_OUTER_BOUND ( 'NONE', #13, .T. ) ;
#50 = FILL_AREA_STYLE_COLOUR ( '', #135 ) ;
#51 = APPLICATION_PROTOCOL_DEFINITION ( 'draft international standard', 'automotive_design', 1998, #146 ) ;
#52 = CARTESIAN_POINT ( 'NONE',  ( 44.31958549791029600, 26.08904114919495900, 0.0000000000000000000 ) ) ;
#53 = ORIENTED_EDGE ( 'NONE', *, *, #152, .T. ) ;
#54 = SURFACE_STYLE_FILL_AREA ( #179 ) ;
#55 = EDGE_CURVE ( 'NONE', #122, #134, #30, .T. ) ;
#56 = DIRECTION ( 'NONE',  ( -1.000000000000000000, -0.0000000000000000000, -0.0000000000000000000 ) ) ;
#57 = DIRECTION ( 'NONE',  ( 0.0000000000000000000, -1.000000000000000000, -1.224646799147353200E-016 ) ) ;
#58 = PRODUCT_RELATED_PRODUCT_CATEGORY ( 'part', '', ( #165 ) ) ;
#59 = AXIS2_PLACEMENT_3D ( 'NONE', #141, #56, #43 ) ;
#60 = EDGE_LOOP ( 'NONE', ( #53, #182 ) ) ;
#61 = PLANE ( 'NONE',  #97 ) ;
#62 = DIRECTION ( 'NONE',  ( 0.0000000000000000000, 0.0000000000000000000, -1.000000000000000000 ) ) ;
#63 = EDGE_CURVE ( 'NONE', #45, #94, #25, .T. ) ;
#64 = PRESENTATION_LAYER_ASSIGNMENT (  '', '', ( #67 ) ) ;
#65 = SPHERICAL_SURFACE ( 'NONE', #93, 52.20335801036089400 ) ;
#66 = ORIENTED_EDGE ( 'NONE', *, *, #37, .T. ) ;
#67 = STYLED_ITEM ( 'NONE', ( #106 ), #112 ) ;
#68 = SHAPE_DEFINITION_REPRESENTATION ( #5, #112 ) ;
#69 = MANIFOLD_SOLID_BREP ( 'Ðý×ª1', #96 ) ;
#70 = DIRECTION ( 'NONE',  ( 0.0000000000000000000, -1.224646799147353200E-016, 1.000000000000000000 ) ) ;
#71 = SURFACE_SIDE_STYLE ('',( #82 ) ) ;
#72 = CARTESIAN_POINT ( 'NONE',  ( 42.44986111413682300, 26.08904114919495900, 5.000000000000000900 ) ) ;
#73 = EDGE_CURVE ( 'NONE', #94, #122, #137, .T. ) ;
#74 =( NAMED_UNIT ( * ) SI_UNIT ( $, .STERADIAN. ) SOLID_ANGLE_UNIT ( ) );
#75 = DIRECTION ( 'NONE',  ( 0.0000000000000000000, -1.000000000000000000, 0.0000000000000000000 ) ) ;
#76 =( GEOMETRIC_REPRESENTATION_CONTEXT ( 3 ) GLOBAL_UNCERTAINTY_ASSIGNED_CONTEXT ( ( #1 ) ) GLOBAL_UNIT_ASSIGNED_CONTEXT ( ( #160, #171, #74 ) ) REPRESENTATION_CONTEXT ( 'NONE', 'WORKASPACE' ) );
#77 = ORIENTED_EDGE ( 'NONE', *, *, #63, .T. ) ;
#78 = STYLED_ITEM ( 'NONE', ( #11 ), #69 ) ;
#79 = EDGE_CURVE ( 'NONE', #45, #142, #44, .T. ) ;
#80 = AXIS2_PLACEMENT_3D ( 'NONE', #155, #70, #57 ) ;
#81 = ORIENTED_EDGE ( 'NONE', *, *, #178, .T. ) ;
#82 = SURFACE_STYLE_FILL_AREA ( #84 ) ;
#83 = SURFACE_SIDE_STYLE ('',( #54 ) ) ;
#84 = FILL_AREA_STYLE ('',( #50 ) ) ;
#85 = PRESENTATION_LAYER_ASSIGNMENT (  '', '', ( #78 ) ) ;
#86 = DIRECTION ( 'NONE',  ( 0.0000000000000000000, 0.0000000000000000000, 1.000000000000000000 ) ) ;
#87 = CARTESIAN_POINT ( 'NONE',  ( 44.31958549791029600, 26.08904114919495900, 0.0000000000000000000 ) ) ;
#88 = CARTESIAN_POINT ( 'NONE',  ( 0.0000000000000000000, 0.0000000000000000000, 0.0000000000000000000 ) ) ;
#89 = DIRECTION ( 'NONE',  ( 0.0000000000000000000, 0.0000000000000000000, 1.000000000000000000 ) ) ;
#90 = EDGE_CURVE ( 'NONE', #94, #111, #3, .T. ) ;
#91 = AXIS2_PLACEMENT_3D ( 'NONE', #157, #6, #32 ) ;
#92 = ORIENTED_EDGE ( 'NONE', *, *, #37, .F. ) ;
#93 = AXIS2_PLACEMENT_3D ( 'NONE', #159, #184, #75 ) ;
#94 = VERTEX_POINT ( 'NONE', #23 ) ;
#95 = MECHANICAL_DESIGN_GEOMETRIC_PRESENTATION_REPRESENTATION (  '', ( #78 ), #114 ) ;
#96 = CLOSED_SHELL ( 'NONE', ( #21, #183, #185, #9, #147 ) ) ;
#97 = AXIS2_PLACEMENT_3D ( 'NONE', #38, #144, #127 ) ;
#98 = DIRECTION ( 'NONE',  ( 0.0000000000000000000, 0.0000000000000000000, 1.000000000000000000 ) ) ;
#99 = CARTESIAN_POINT ( 'NONE',  ( 42.44986111413682300, 26.08904114919495900, 0.0000000000000000000 ) ) ;
#100 = DIRECTION ( 'NONE',  ( 0.0000000000000000000, 0.0000000000000000000, 1.000000000000000000 ) ) ;
#101 = SURFACE_STYLE_USAGE ( .BOTH. , #83 ) ;
#102 = AXIS2_PLACEMENT_3D ( 'NONE', #121, #166, #98 ) ;
#103 =( NAMED_UNIT ( * ) PLANE_ANGLE_UNIT ( ) SI_UNIT ( $, .RADIAN. ) );
#104 = AXIS2_PLACEMENT_3D ( 'NONE', #170, #162, #47 ) ;
#105 = CARTESIAN_POINT ( 'NONE',  ( 42.44986111413682300, 26.08904114919495900, -5.000000000000000900 ) ) ;
#106 = PRESENTATION_STYLE_ASSIGNMENT (( #172 ) ) ;
#107 = CARTESIAN_POINT ( 'NONE',  ( 98.02294362224547800, 26.08904114919495900, 0.0000000000000000000 ) ) ;
#108 = FACE_OUTER_BOUND ( 'NONE', #60, .T. ) ;
#109 = CYLINDRICAL_SURFACE ( 'NONE', #15, 5.000000000000000900 ) ;
#110 = DIRECTION ( 'NONE',  ( -1.000000000000000000, -0.0000000000000000000, -0.0000000000000000000 ) ) ;
#111 = VERTEX_POINT ( 'NONE', #129 ) ;
#112 = ADVANCED_BREP_SHAPE_REPRESENTATION ( '120018', ( #69, #46 ), #119 ) ;
#113 = ORIENTED_EDGE ( 'NONE', *, *, #79, .F. ) ;
#114 =( GEOMETRIC_REPRESENTATION_CONTEXT ( 3 ) GLOBAL_UNCERTAINTY_ASSIGNED_CONTEXT ( ( #180 ) ) GLOBAL_UNIT_ASSIGNED_CONTEXT ( ( #8, #103, #19 ) ) REPRESENTATION_CONTEXT ( 'NONE', 'WORKASPACE' ) );
#115 = MECHANICAL_DESIGN_GEOMETRIC_PRESENTATION_REPRESENTATION (  '', ( #67 ), #76 ) ;
#116 = AXIS2_PLACEMENT_3D ( 'NONE', #52, #48, #86 ) ;
#117 = CIRCLE ( 'NONE', #116, 5.000000000000000900 ) ;
#118 = VERTEX_POINT ( 'NONE', #126 ) ;
#119 =( GEOMETRIC_REPRESENTATION_CONTEXT ( 3 ) GLOBAL_UNCERTAINTY_ASSIGNED_CONTEXT ( ( #151 ) ) GLOBAL_UNIT_ASSIGNED_CONTEXT ( ( #22, #20, #34 ) ) REPRESENTATION_CONTEXT ( 'NONE', 'WORKASPACE' ) );
#120 = CARTESIAN_POINT ( 'NONE',  ( 46.05958549791029800, 26.08904114919495900, 0.0000000000000000000 ) ) ;
#121 = CARTESIAN_POINT ( 'NONE',  ( 46.05958549791029800, 26.08904114919495900, 0.0000000000000000000 ) ) ;
#122 = VERTEX_POINT ( 'NONE', #143 ) ;
#123 = ORIENTED_EDGE ( 'NONE', *, *, #63, .F. ) ;
#124 = DIRECTION ( 'NONE',  ( -1.000000000000000000, -0.0000000000000000000, -0.0000000000000000000 ) ) ;
#125 = APPLICATION_PROTOCOL_DEFINITION ( 'draft international standard', 'automotive_design', 1998, #181 ) ;
#126 = CARTESIAN_POINT ( 'NONE',  ( 44.31958549791029600, 26.08904114919495900, -5.000000000000000900 ) ) ;
#127 = DIRECTION ( 'NONE',  ( 0.0000000000000000000, 0.0000000000000000000, -1.000000000000000000 ) ) ;
#128 = PRODUCT_DEFINITION_FORMATION_WITH_SPECIFIED_SOURCE ( 'ÈÎºÎ', '', #165, .NOT_KNOWN. ) ;
#129 = CARTESIAN_POINT ( 'NONE',  ( 44.31958549791029600, 26.08904114919495900, 5.000000000000000900 ) ) ;
#130 = CARTESIAN_POINT ( 'NONE',  ( 45.81958561188459100, 26.08904114919495500, 0.0000000000000000000 ) ) ;
#131 = FACE_OUTER_BOUND ( 'NONE', #7, .T. ) ;
#132 = ORIENTED_EDGE ( 'NONE', *, *, #90, .F. ) ;
#133 = COLOUR_RGB ( '',1.000000000000000000, 1.000000000000000000, 1.000000000000000000 ) ;
#134 = VERTEX_POINT ( 'NONE', #24 ) ;
#135 = COLOUR_RGB ( '',1.000000000000000000, 1.000000000000000000, 1.000000000000000000 ) ;
#136 = AXIS2_PLACEMENT_3D ( 'NONE', #120, #31, #161 ) ;
#137 = CIRCLE ( 'NONE', #136, 5.000000000000000900 ) ;
#138 = ORIENTED_EDGE ( 'NONE', *, *, #55, .F. ) ;
#139 = FILL_AREA_STYLE_COLOUR ( '', #133 ) ;
#140 = CIRCLE ( 'NONE', #80, 52.20335801036089400 ) ;
#141 = CARTESIAN_POINT ( 'NONE',  ( 46.05958549791029800, 26.08904114919495900, 0.0000000000000000000 ) ) ;
#142 = VERTEX_POINT ( 'NONE', #130 ) ;
#143 = CARTESIAN_POINT ( 'NONE',  ( 46.05958549791029800, 31.08904114919493400, 6.123233995736729800E-016 ) ) ;
#144 = DIRECTION ( 'NONE',  ( 1.000000000000000000, 0.0000000000000000000, 0.0000000000000000000 ) ) ;
#145 = DIRECTION ( 'NONE',  ( -1.000000000000000000, 0.0000000000000000000, 0.0000000000000000000 ) ) ;
#146 = APPLICATION_CONTEXT ( 'automotive_design' ) ;
#147 = ADVANCED_FACE ( 'NONE', ( #108 ), #61, .F. ) ;
#148 = AXIS2_PLACEMENT_3D ( 'NONE', #87, #10, #89 ) ;
#149 = CIRCLE ( 'NONE', #59, 5.000000000000000900 ) ;
#150 = EDGE_CURVE ( 'NONE', #118, #111, #117, .T. ) ;
#151 = UNCERTAINTY_MEASURE_WITH_UNIT (LENGTH_MEASURE( 1.000000000000000100E-005 ), #22, 'distance_accuracy_value', 'NONE');
#152 = EDGE_CURVE ( 'NONE', #111, #118, #2, .T. ) ;
#153 = VECTOR ( 'NONE', #158, 1000.000000000000000 ) ;
#154 = FACE_OUTER_BOUND ( 'NONE', #14, .T. ) ;
#155 = CARTESIAN_POINT ( 'NONE',  ( 98.02294362224547800, 26.08904114919495900, 0.0000000000000000000 ) ) ;
#156 = ORIENTED_EDGE ( 'NONE', *, *, #73, .F. ) ;
#157 = CARTESIAN_POINT ( 'NONE',  ( 46.05958549791029800, 26.08904114919495900, 0.0000000000000000000 ) ) ;
#158 = DIRECTION ( 'NONE',  ( -1.000000000000000000, -0.0000000000000000000, -0.0000000000000000000 ) ) ;
#159 = CARTESIAN_POINT ( 'NONE',  ( 98.02294362224547800, 26.08904114919495900, 0.0000000000000000000 ) ) ;
#160 =( LENGTH_UNIT ( ) NAMED_UNIT ( * ) SI_UNIT ( .MILLI., .METRE. ) );
#161 = DIRECTION ( 'NONE',  ( 0.0000000000000000000, 0.0000000000000000000, 1.000000000000000000 ) ) ;
#162 = DIRECTION ( 'NONE',  ( 0.0000000000000000000, 0.0000000000000000000, 1.000000000000000000 ) ) ;
#163 = PRODUCT_DEFINITION ( 'Î´Öª', '', #128, #175 ) ;
#164 = LINE ( 'NONE', #105, #35 ) ;
#165 = PRODUCT ( '120018', '120018', '', ( #12 ) ) ;
#166 = DIRECTION ( 'NONE',  ( -1.000000000000000000, -0.0000000000000000000, -0.0000000000000000000 ) ) ;
#167 = ORIENTED_EDGE ( 'NONE', *, *, #152, .F. ) ;
#168 = ORIENTED_EDGE ( 'NONE', *, *, #178, .F. ) ;
#169 = CARTESIAN_POINT ( 'NONE',  ( 42.44986111413682300, 26.08904114919495900, 0.0000000000000000000 ) ) ;
#170 = CARTESIAN_POINT ( 'NONE',  ( 98.02294362224547800, 26.08904114919495900, 0.0000000000000000000 ) ) ;
#171 =( NAMED_UNIT ( * ) PLANE_ANGLE_UNIT ( ) SI_UNIT ( $, .RADIAN. ) );
#172 = SURFACE_STYLE_USAGE ( .BOTH. , #71 ) ;
#173 = ORIENTED_EDGE ( 'NONE', *, *, #28, .F. ) ;
#174 = ORIENTED_EDGE ( 'NONE', *, *, #90, .T. ) ;
#175 = PRODUCT_DEFINITION_CONTEXT ( 'detailed design', #181, 'design' ) ;
#176 = CYLINDRICAL_SURFACE ( 'NONE', #41, 5.000000000000000900 ) ;
#177 = ORIENTED_EDGE ( 'NONE', *, *, #79, .T. ) ;
#178 = EDGE_CURVE ( 'NONE', #134, #118, #164, .T. ) ;
#179 = FILL_AREA_STYLE ('',( #139 ) ) ;
#180 = UNCERTAINTY_MEASURE_WITH_UNIT (LENGTH_MEASURE( 1.000000000000000100E-005 ), #8, 'distance_accuracy_value', 'NONE');
#181 = APPLICATION_CONTEXT ( 'automotive_design' ) ;
#182 = ORIENTED_EDGE ( 'NONE', *, *, #150, .T. ) ;
#183 = ADVANCED_FACE ( 'NONE', ( #131 ), #65, .F. ) ;
#184 = DIRECTION ( 'NONE',  ( 0.0000000000000000000, 0.0000000000000000000, 1.000000000000000000 ) ) ;
#185 = ADVANCED_FACE ( 'NONE', ( #49 ), #42, .F. ) ;
#186 = DIRECTION ( 'NONE',  ( 1.000000000000000000, 0.0000000000000000000, 0.0000000000000000000 ) ) ;
ENDSEC;
END-ISO-10303-21;
