ISO-10303-21;
HEADER;
FILE_DESCRIPTION (( 'STEP AP214' ),
    '1' );
FILE_NAME ('120020.STEP',
    '2019-06-14T06:57:02',
    ( '' ),
    ( '' ),
    'SwSTEP 2.0',
    'SolidWorks 2016',
    '' );
FILE_SCHEMA (( 'AUTOMOTIVE_DESIGN' ));
ENDSEC;

DATA;
#1 = EDGE_CURVE ( 'NONE', #139, #41, #150, .T. ) ;
#2 = EDGE_LOOP ( 'NONE', ( #12, #153 ) ) ;
#3 = FACE_OUTER_BOUND ( 'NONE', #2, .T. ) ;
#4 = PRODUCT ( '120020', '120020', '', ( #118 ) ) ;
#5 =( GEOMETRIC_REPRESENTATION_CONTEXT ( 3 ) GLOBAL_UNCERTAINTY_ASSIGNED_CONTEXT ( ( #83 ) ) GLOBAL_UNIT_ASSIGNED_CONTEXT ( ( #126, #113, #66 ) ) REPRESENTATION_CONTEXT ( 'NONE', 'WORKASPACE' ) );
#6 = ORIENTED_EDGE ( 'NONE', *, *, #70, .T. ) ;
#7 =( LENGTH_UNIT ( ) NAMED_UNIT ( * ) SI_UNIT ( .MILLI., .METRE. ) );
#8 = CYLINDRICAL_SURFACE ( 'NONE', #86, 8.000000000000003600 ) ;
#9 = FILL_AREA_STYLE_COLOUR ( '', #97 ) ;
#10 = CARTESIAN_POINT ( 'NONE',  ( 58.72918005269737300, 26.08904114919495900, 0.0000000000000000000 ) ) ;
#11 = ORIENTED_EDGE ( 'NONE', *, *, #88, .F. ) ;
#12 = ORIENTED_EDGE ( 'NONE', *, *, #58, .F. ) ;
#13 = PRODUCT_DEFINITION_CONTEXT ( 'detailed design', #82, 'design' ) ;
#14 = FACE_OUTER_BOUND ( 'NONE', #47, .T. ) ;
#15 = CARTESIAN_POINT ( 'NONE',  ( 44.31915269315436500, 26.08904114919495900, 0.0000000000000000000 ) ) ;
#16 = ORIENTED_EDGE ( 'NONE', *, *, #51, .F. ) ;
#17 = CIRCLE ( 'NONE', #108, 12.90999999999999800 ) ;
#18 = DIRECTION ( 'NONE',  ( 1.000000000000000000, 0.0000000000000000000, 0.0000000000000000000 ) ) ;
#19 = PRESENTATION_LAYER_ASSIGNMENT (  '', '', ( #124 ) ) ;
#20 = CLOSED_SHELL ( 'NONE', ( #65, #165, #29, #67, #54 ) ) ;
#21 = UNCERTAINTY_MEASURE_WITH_UNIT (LENGTH_MEASURE( 1.000000000000000100E-005 ), #7, 'distance_accuracy_value', 'NONE');
#22 = LINE ( 'NONE', #89, #154 ) ;
#23 = DIRECTION ( 'NONE',  ( -0.0000000000000000000, -1.000000000000000000, -0.0000000000000000000 ) ) ;
#24 = PLANE ( 'NONE',  #63 ) ;
#25 = SURFACE_STYLE_FILL_AREA ( #130 ) ;
#26 = CARTESIAN_POINT ( 'NONE',  ( 58.72918005269737300, 26.08904114919495900, 0.001918468302188752700 ) ) ;
#27 = CARTESIAN_POINT ( 'NONE',  ( 44.31915269315436500, 26.08904114919495900, 0.0000000000000000000 ) ) ;
#28 = AXIS2_PLACEMENT_3D ( 'NONE', #104, #149, #87 ) ;
#29 = ADVANCED_FACE ( 'NONE', ( #128 ), #105, .F. ) ;
#30 =( NAMED_UNIT ( * ) PLANE_ANGLE_UNIT ( ) SI_UNIT ( $, .RADIAN. ) );
#31 = VECTOR ( 'NONE', #136, 1000.000000000000000 ) ;
#32 = CARTESIAN_POINT ( 'NONE',  ( 48.59513881475511700, 26.08904114919495900, 8.000000000000003600 ) ) ;
#33 = CARTESIAN_POINT ( 'NONE',  ( 58.72918005269737300, 26.08904114919495900, 0.0000000000000000000 ) ) ;
#34 = CIRCLE ( 'NONE', #95, 8.000000000000003600 ) ;
#35 = DIRECTION ( 'NONE',  ( 0.0000000000000000000, 0.0000000000000000000, -1.000000000000000000 ) ) ;
#36 = AXIS2_PLACEMENT_3D ( 'NONE', #40, #37, #116 ) ;
#37 = DIRECTION ( 'NONE',  ( 1.000000000000000000, -0.0000000000000000000, -0.0000000000000000000 ) ) ;
#38 = CIRCLE ( 'NONE', #60, 8.000000000000003600 ) ;
#39 = CARTESIAN_POINT ( 'NONE',  ( 44.31915269315436500, 26.08904114919495900, -8.000000000000003600 ) ) ;
#40 = CARTESIAN_POINT ( 'NONE',  ( 45.81918019524270800, 26.08904114919495900, 0.0000000000000000000 ) ) ;
#41 = VERTEX_POINT ( 'NONE', #32 ) ;
#42 = CIRCLE ( 'NONE', #28, 8.000000000000003600 ) ;
#43 = EDGE_CURVE ( 'NONE', #139, #146, #38, .T. ) ;
#44 = ORIENTED_EDGE ( 'NONE', *, *, #160, .T. ) ;
#45 = CIRCLE ( 'NONE', #101, 12.90999999999999800 ) ;
#46 = DIRECTION ( 'NONE',  ( 1.000000000000000000, -0.0000000000000000000, -0.0000000000000000000 ) ) ;
#47 = EDGE_LOOP ( 'NONE', ( #16, #92, #44 ) ) ;
#48 = MANIFOLD_SOLID_BREP ( 'Ðý×ª1', #20 ) ;
#49 = DIRECTION ( 'NONE',  ( 0.0000000000000000000, 0.0000000000000000000, -1.000000000000000000 ) ) ;
#50 = DIRECTION ( 'NONE',  ( 0.0000000000000000000, 0.0000000000000000000, -1.000000000000000000 ) ) ;
#51 = EDGE_CURVE ( 'NONE', #161, #75, #17, .T. ) ;
#52 = APPLICATION_CONTEXT ( 'automotive_design' ) ;
#53 = ORIENTED_EDGE ( 'NONE', *, *, #58, .T. ) ;
#54 = ADVANCED_FACE ( 'NONE', ( #3 ), #24, .T. ) ;
#55 = SURFACE_STYLE_FILL_AREA ( #68 ) ;
#56 = EDGE_LOOP ( 'NONE', ( #99, #164, #145 ) ) ;
#57 = ORIENTED_EDGE ( 'NONE', *, *, #43, .T. ) ;
#58 = EDGE_CURVE ( 'NONE', #146, #139, #76, .T. ) ;
#59 = CARTESIAN_POINT ( 'NONE',  ( 45.81918019524270800, 26.08904114919495900, 0.0000000000000000000 ) ) ;
#60 = AXIS2_PLACEMENT_3D ( 'NONE', #27, #115, #61 ) ;
#61 = DIRECTION ( 'NONE',  ( 0.0000000000000000000, 0.0000000000000000000, -1.000000000000000000 ) ) ;
#62 = DIRECTION ( 'NONE',  ( 1.000000000000000000, -0.0000000000000000000, -0.0000000000000000000 ) ) ;
#63 = AXIS2_PLACEMENT_3D ( 'NONE', #15, #159, #64 ) ;
#64 = DIRECTION ( 'NONE',  ( 0.0000000000000000000, 0.0000000000000000000, 1.000000000000000000 ) ) ;
#65 = ADVANCED_FACE ( 'NONE', ( #100 ), #8, .T. ) ;
#66 =( NAMED_UNIT ( * ) SI_UNIT ( $, .STERADIAN. ) SOLID_ANGLE_UNIT ( ) );
#67 = ADVANCED_FACE ( 'NONE', ( #140 ), #96, .T. ) ;
#68 = FILL_AREA_STYLE ('',( #135 ) ) ;
#69 =( NAMED_UNIT ( * ) SI_UNIT ( $, .STERADIAN. ) SOLID_ANGLE_UNIT ( ) );
#70 = EDGE_CURVE ( 'NONE', #146, #75, #22, .T. ) ;
#71 = AXIS2_PLACEMENT_3D ( 'NONE', #94, #74, #144 ) ;
#72 = TOROIDAL_SURFACE ( 'NONE', #73, 0.001918468302188752700, 12.90999999999999800 ) ;
#73 = AXIS2_PLACEMENT_3D ( 'NONE', #10, #91, #50 ) ;
#74 = DIRECTION ( 'NONE',  ( 1.000000000000000000, -0.0000000000000000000, -0.0000000000000000000 ) ) ;
#75 = VERTEX_POINT ( 'NONE', #148 ) ;
#76 = CIRCLE ( 'NONE', #71, 8.000000000000003600 ) ;
#77 = CARTESIAN_POINT ( 'NONE',  ( 58.72918005269737300, 26.08904114919495900, -0.001918468302188752700 ) ) ;
#78 = CARTESIAN_POINT ( 'NONE',  ( 0.0000000000000000000, 0.0000000000000000000, 0.0000000000000000000 ) ) ;
#79 = EDGE_CURVE ( 'NONE', #161, #41, #45, .T. ) ;
#80 = APPLICATION_PROTOCOL_DEFINITION ( 'draft international standard', 'automotive_design', 1998, #52 ) ;
#81 = AXIS2_PLACEMENT_3D ( 'NONE', #33, #109, #138 ) ;
#82 = APPLICATION_CONTEXT ( 'automotive_design' ) ;
#83 = UNCERTAINTY_MEASURE_WITH_UNIT (LENGTH_MEASURE( 1.000000000000000100E-005 ), #126, 'distance_accuracy_value', 'NONE');
#84 = EDGE_LOOP ( 'NONE', ( #157, #57, #6, #119 ) ) ;
#85 =( LENGTH_UNIT ( ) NAMED_UNIT ( * ) SI_UNIT ( .MILLI., .METRE. ) );
#86 = AXIS2_PLACEMENT_3D ( 'NONE', #125, #62, #158 ) ;
#87 = DIRECTION ( 'NONE',  ( 0.0000000000000000000, 0.0000000000000000000, -1.000000000000000000 ) ) ;
#88 = EDGE_CURVE ( 'NONE', #75, #41, #34, .T. ) ;
#89 = CARTESIAN_POINT ( 'NONE',  ( 45.81918019524270800, 26.08904114919495900, -8.000000000000003600 ) ) ;
#90 =( GEOMETRIC_REPRESENTATION_CONTEXT ( 3 ) GLOBAL_UNCERTAINTY_ASSIGNED_CONTEXT ( ( #127 ) ) GLOBAL_UNIT_ASSIGNED_CONTEXT ( ( #85, #30, #121 ) ) REPRESENTATION_CONTEXT ( 'NONE', 'WORKASPACE' ) );
#91 = DIRECTION ( 'NONE',  ( 1.000000000000000000, -0.0000000000000000000, -0.0000000000000000000 ) ) ;
#92 = ORIENTED_EDGE ( 'NONE', *, *, #79, .T. ) ;
#93 = COLOUR_RGB ( '',1.000000000000000000, 1.000000000000000000, 1.000000000000000000 ) ;
#94 = CARTESIAN_POINT ( 'NONE',  ( 44.31915269315436500, 26.08904114919495900, 0.0000000000000000000 ) ) ;
#95 = AXIS2_PLACEMENT_3D ( 'NONE', #129, #166, #49 ) ;
#96 = CYLINDRICAL_SURFACE ( 'NONE', #36, 8.000000000000003600 ) ;
#97 = COLOUR_RGB ( '',1.000000000000000000, 1.000000000000000000, 1.000000000000000000 ) ;
#98 = EDGE_LOOP ( 'NONE', ( #53, #131, #11, #151 ) ) ;
#99 = ORIENTED_EDGE ( 'NONE', *, *, #79, .F. ) ;
#100 = FACE_OUTER_BOUND ( 'NONE', #98, .T. ) ;
#101 = AXIS2_PLACEMENT_3D ( 'NONE', #26, #142, #102 ) ;
#102 = DIRECTION ( 'NONE',  ( 0.0000000000000000000, 0.0000000000000000000, 1.000000000000000000 ) ) ;
#103 = SURFACE_STYLE_USAGE ( .BOTH. , #156 ) ;
#104 = CARTESIAN_POINT ( 'NONE',  ( 48.59513881475511700, 26.08904114919495900, 0.0000000000000000000 ) ) ;
#105 = TOROIDAL_SURFACE ( 'NONE', #81, 0.001918468302188752700, 12.90999999999999800 ) ;
#106 =( NAMED_UNIT ( * ) PLANE_ANGLE_UNIT ( ) SI_UNIT ( $, .RADIAN. ) );
#107 = PRODUCT_DEFINITION_SHAPE ( 'NONE', 'NONE',  #114 ) ;
#108 = AXIS2_PLACEMENT_3D ( 'NONE', #77, #23, #35 ) ;
#109 = DIRECTION ( 'NONE',  ( 1.000000000000000000, -0.0000000000000000000, -0.0000000000000000000 ) ) ;
#110 = SHAPE_DEFINITION_REPRESENTATION ( #107, #111 ) ;
#111 = ADVANCED_BREP_SHAPE_REPRESENTATION ( '120020', ( #48, #117 ), #143 ) ;
#112 = PRESENTATION_STYLE_ASSIGNMENT (( #103 ) ) ;
#113 =( NAMED_UNIT ( * ) PLANE_ANGLE_UNIT ( ) SI_UNIT ( $, .RADIAN. ) );
#114 = PRODUCT_DEFINITION ( 'Î´Öª', '', #133, #13 ) ;
#115 = DIRECTION ( 'NONE',  ( 1.000000000000000000, -0.0000000000000000000, -0.0000000000000000000 ) ) ;
#116 = DIRECTION ( 'NONE',  ( 0.0000000000000000000, 0.0000000000000000000, -1.000000000000000000 ) ) ;
#117 = AXIS2_PLACEMENT_3D ( 'NONE', #78, #134, #18 ) ;
#118 = PRODUCT_CONTEXT ( 'NONE', #52, 'mechanical' ) ;
#119 = ORIENTED_EDGE ( 'NONE', *, *, #160, .F. ) ;
#120 = SURFACE_STYLE_USAGE ( .BOTH. , #132 ) ;
#121 =( NAMED_UNIT ( * ) SI_UNIT ( $, .STERADIAN. ) SOLID_ANGLE_UNIT ( ) );
#122 = CARTESIAN_POINT ( 'NONE',  ( 45.81918019524270800, 26.08904114919495900, 8.000000000000003600 ) ) ;
#123 = MECHANICAL_DESIGN_GEOMETRIC_PRESENTATION_REPRESENTATION (  '', ( #124 ), #90 ) ;
#124 = STYLED_ITEM ( 'NONE', ( #147 ), #111 ) ;
#125 = CARTESIAN_POINT ( 'NONE',  ( 45.81918019524270800, 26.08904114919495900, 0.0000000000000000000 ) ) ;
#126 =( LENGTH_UNIT ( ) NAMED_UNIT ( * ) SI_UNIT ( .MILLI., .METRE. ) );
#127 = UNCERTAINTY_MEASURE_WITH_UNIT (LENGTH_MEASURE( 1.000000000000000100E-005 ), #85, 'distance_accuracy_value', 'NONE');
#128 = FACE_OUTER_BOUND ( 'NONE', #56, .T. ) ;
#129 = CARTESIAN_POINT ( 'NONE',  ( 48.59513881475511700, 26.08904114919495900, 0.0000000000000000000 ) ) ;
#130 = FILL_AREA_STYLE ('',( #9 ) ) ;
#131 = ORIENTED_EDGE ( 'NONE', *, *, #1, .T. ) ;
#132 = SURFACE_SIDE_STYLE ('',( #55 ) ) ;
#133 = PRODUCT_DEFINITION_FORMATION_WITH_SPECIFIED_SOURCE ( 'ÈÎºÎ', '', #4, .NOT_KNOWN. ) ;
#134 = DIRECTION ( 'NONE',  ( 0.0000000000000000000, 0.0000000000000000000, 1.000000000000000000 ) ) ;
#135 = FILL_AREA_STYLE_COLOUR ( '', #93 ) ;
#136 = DIRECTION ( 'NONE',  ( 1.000000000000000000, -0.0000000000000000000, -0.0000000000000000000 ) ) ;
#137 = PRODUCT_RELATED_PRODUCT_CATEGORY ( 'part', '', ( #4 ) ) ;
#138 = DIRECTION ( 'NONE',  ( 0.0000000000000000000, 0.0000000000000000000, -1.000000000000000000 ) ) ;
#139 = VERTEX_POINT ( 'NONE', #141 ) ;
#140 = FACE_OUTER_BOUND ( 'NONE', #84, .T. ) ;
#141 = CARTESIAN_POINT ( 'NONE',  ( 44.31915269315436500, 26.08904114919495900, 8.000000000000003600 ) ) ;
#142 = DIRECTION ( 'NONE',  ( 0.0000000000000000000, 1.000000000000000000, -1.224646799147353200E-016 ) ) ;
#143 =( GEOMETRIC_REPRESENTATION_CONTEXT ( 3 ) GLOBAL_UNCERTAINTY_ASSIGNED_CONTEXT ( ( #21 ) ) GLOBAL_UNIT_ASSIGNED_CONTEXT ( ( #7, #106, #69 ) ) REPRESENTATION_CONTEXT ( 'NONE', 'WORKASPACE' ) );
#144 = DIRECTION ( 'NONE',  ( 0.0000000000000000000, 0.0000000000000000000, -1.000000000000000000 ) ) ;
#145 = ORIENTED_EDGE ( 'NONE', *, *, #88, .T. ) ;
#146 = VERTEX_POINT ( 'NONE', #39 ) ;
#147 = PRESENTATION_STYLE_ASSIGNMENT (( #120 ) ) ;
#148 = CARTESIAN_POINT ( 'NONE',  ( 48.59513881475511700, 26.08904114919495900, -8.000000000000003600 ) ) ;
#149 = DIRECTION ( 'NONE',  ( 1.000000000000000000, -0.0000000000000000000, -0.0000000000000000000 ) ) ;
#150 = LINE ( 'NONE', #122, #31 ) ;
#151 = ORIENTED_EDGE ( 'NONE', *, *, #70, .F. ) ;
#152 = APPLICATION_PROTOCOL_DEFINITION ( 'draft international standard', 'automotive_design', 1998, #82 ) ;
#153 = ORIENTED_EDGE ( 'NONE', *, *, #43, .F. ) ;
#154 = VECTOR ( 'NONE', #46, 1000.000000000000000 ) ;
#155 = PRESENTATION_LAYER_ASSIGNMENT (  '', '', ( #162 ) ) ;
#156 = SURFACE_SIDE_STYLE ('',( #25 ) ) ;
#157 = ORIENTED_EDGE ( 'NONE', *, *, #1, .F. ) ;
#158 = DIRECTION ( 'NONE',  ( 0.0000000000000000000, 0.0000000000000000000, -1.000000000000000000 ) ) ;
#159 = DIRECTION ( 'NONE',  ( -1.000000000000000000, 0.0000000000000000000, 0.0000000000000000000 ) ) ;
#160 = EDGE_CURVE ( 'NONE', #41, #75, #42, .T. ) ;
#161 = VERTEX_POINT ( 'NONE', #59 ) ;
#162 = STYLED_ITEM ( 'NONE', ( #112 ), #48 ) ;
#163 = MECHANICAL_DESIGN_GEOMETRIC_PRESENTATION_REPRESENTATION (  '', ( #162 ), #5 ) ;
#164 = ORIENTED_EDGE ( 'NONE', *, *, #51, .T. ) ;
#165 = ADVANCED_FACE ( 'NONE', ( #14 ), #72, .F. ) ;
#166 = DIRECTION ( 'NONE',  ( 1.000000000000000000, -0.0000000000000000000, -0.0000000000000000000 ) ) ;
ENDSEC;
END-ISO-10303-21;
