ISO-10303-21;
HEADER;
FILE_DESCRIPTION (( 'STEP AP214' ),
    '1' );
FILE_NAME ('120043.STEP',
    '2019-06-17T06:32:04',
    ( '' ),
    ( '' ),
    'SwSTEP 2.0',
    'SolidWorks 2016',
    '' );
FILE_SCHEMA (( 'AUTOMOTIVE_DESIGN' ));
ENDSEC;

DATA;
#1 = STYLED_ITEM ( 'NONE', ( #68 ), #45 ) ;
#2 = SPHERICAL_SURFACE ( 'NONE', #154, 88.00000000000001400 ) ;
#3 = DIRECTION ( 'NONE',  ( 0.0000000000000000000, -1.224646799147353200E-016, 1.000000000000000000 ) ) ;
#4 = EDGE_CURVE ( 'NONE', #12, #59, #46, .T. ) ;
#5 = UNCERTAINTY_MEASURE_WITH_UNIT (LENGTH_MEASURE( 1.000000000000000100E-005 ), #74, 'distance_accuracy_value', 'NONE');
#6 = ORIENTED_EDGE ( 'NONE', *, *, #66, .F. ) ;
#7 = CARTESIAN_POINT ( 'NONE',  ( 119.9722928128483500, 65.22153625845356800, 17.00000000000000000 ) ) ;
#8 = APPLICATION_PROTOCOL_DEFINITION ( 'draft international standard', 'automotive_design', 1998, #92 ) ;
#9 = DIRECTION ( 'NONE',  ( -1.000000000000000000, -0.0000000000000000000, -0.0000000000000000000 ) ) ;
#10 = CIRCLE ( 'NONE', #144, 17.00000000000000000 ) ;
#11 = DIRECTION ( 'NONE',  ( 0.0000000000000000000, 0.0000000000000000000, 1.000000000000000000 ) ) ;
#12 = VERTEX_POINT ( 'NONE', #98 ) ;
#13 = CARTESIAN_POINT ( 'NONE',  ( 119.9722928128483500, 82.22153625845359700, 2.081899558550496700E-015 ) ) ;
#14 = CLOSED_SHELL ( 'NONE', ( #128, #153, #111, #185, #19 ) ) ;
#15 = AXIS2_PLACEMENT_3D ( 'NONE', #39, #94, #103 ) ;
#16 = CYLINDRICAL_SURFACE ( 'NONE', #179, 17.00000000000000000 ) ;
#17 = AXIS2_PLACEMENT_3D ( 'NONE', #101, #27, #124 ) ;
#18 = EDGE_LOOP ( 'NONE', ( #122, #99, #53, #96, #160 ) ) ;
#19 = ADVANCED_FACE ( 'NONE', ( #164 ), #135, .F. ) ;
#20 = EDGE_CURVE ( 'NONE', #146, #127, #75, .T. ) ;
#21 = ORIENTED_EDGE ( 'NONE', *, *, #148, .F. ) ;
#22 = DIRECTION ( 'NONE',  ( 0.0000000000000000000, 0.0000000000000000000, 1.000000000000000000 ) ) ;
#23 = DIRECTION ( 'NONE',  ( 1.000000000000000000, 0.0000000000000000000, 0.0000000000000000000 ) ) ;
#24 = ORIENTED_EDGE ( 'NONE', *, *, #43, .T. ) ;
#25 = DIRECTION ( 'NONE',  ( 0.0000000000000000000, 0.0000000000000000000, 1.000000000000000000 ) ) ;
#26 = AXIS2_PLACEMENT_3D ( 'NONE', #72, #11, #65 ) ;
#27 = DIRECTION ( 'NONE',  ( -1.000000000000000000, -0.0000000000000000000, -0.0000000000000000000 ) ) ;
#28 = CARTESIAN_POINT ( 'NONE',  ( 119.9722928128483500, 65.22153625845356800, 0.0000000000000000000 ) ) ;
#29 = MANIFOLD_SOLID_BREP ( 'Ðý×ª1', #14 ) ;
#30 = VECTOR ( 'NONE', #116, 1000.000000000000000 ) ;
#31 = EDGE_LOOP ( 'NONE', ( #55, #24, #133, #102 ) ) ;
#32 = AXIS2_PLACEMENT_3D ( 'NONE', #61, #35, #156 ) ;
#33 =( GEOMETRIC_REPRESENTATION_CONTEXT ( 3 ) GLOBAL_UNCERTAINTY_ASSIGNED_CONTEXT ( ( #107 ) ) GLOBAL_UNIT_ASSIGNED_CONTEXT ( ( #91, #138, #50 ) ) REPRESENTATION_CONTEXT ( 'NONE', 'WORKASPACE' ) );
#34 = EDGE_CURVE ( 'NONE', #166, #59, #173, .T. ) ;
#35 = DIRECTION ( 'NONE',  ( 0.0000000000000000000, 0.0000000000000000000, -1.000000000000000000 ) ) ;
#36 = EDGE_CURVE ( 'NONE', #44, #12, #170, .T. ) ;
#37 = DIRECTION ( 'NONE',  ( 0.0000000000000000000, 0.0000000000000000000, 1.000000000000000000 ) ) ;
#38 = CIRCLE ( 'NONE', #112, 17.00000000000000000 ) ;
#39 = CARTESIAN_POINT ( 'NONE',  ( 206.3146346851881400, 65.22153625845361100, 0.0000000000000000000 ) ) ;
#40 =( NAMED_UNIT ( * ) PLANE_ANGLE_UNIT ( ) SI_UNIT ( $, .RADIAN. ) );
#41 = DIRECTION ( 'NONE',  ( 0.0000000000000000000, 0.0000000000000000000, 1.000000000000000000 ) ) ;
#42 = PRODUCT_DEFINITION_FORMATION_WITH_SPECIFIED_SOURCE ( 'ÈÎºÎ', '', #162, .NOT_KNOWN. ) ;
#43 = EDGE_CURVE ( 'NONE', #113, #127, #186, .T. ) ;
#44 = VERTEX_POINT ( 'NONE', #147 ) ;
#45 = ADVANCED_BREP_SHAPE_REPRESENTATION ( '120043', ( #29, #26 ), #33 ) ;
#46 = CIRCLE ( 'NONE', #177, 17.00000000000000000 ) ;
#47 = ORIENTED_EDGE ( 'NONE', *, *, #34, .F. ) ;
#48 = ORIENTED_EDGE ( 'NONE', *, *, #56, .T. ) ;
#49 = SURFACE_STYLE_USAGE ( .BOTH. , #136 ) ;
#50 =( NAMED_UNIT ( * ) SI_UNIT ( $, .STERADIAN. ) SOLID_ANGLE_UNIT ( ) );
#51 = FACE_OUTER_BOUND ( 'NONE', #58, .T. ) ;
#52 = DIRECTION ( 'NONE',  ( 0.0000000000000000000, 0.0000000000000000000, 1.000000000000000000 ) ) ;
#53 = ORIENTED_EDGE ( 'NONE', *, *, #66, .T. ) ;
#54 = CARTESIAN_POINT ( 'NONE',  ( 206.3146346851881400, 65.22153625845361100, 0.0000000000000000000 ) ) ;
#55 = ORIENTED_EDGE ( 'NONE', *, *, #184, .F. ) ;
#56 = EDGE_CURVE ( 'NONE', #59, #12, #84, .T. ) ;
#57 = AXIS2_PLACEMENT_3D ( 'NONE', #134, #3, #69 ) ;
#58 = EDGE_LOOP ( 'NONE', ( #82, #21, #6, #143 ) ) ;
#59 = VERTEX_POINT ( 'NONE', #86 ) ;
#60 = UNCERTAINTY_MEASURE_WITH_UNIT (LENGTH_MEASURE( 1.000000000000000100E-005 ), #67, 'distance_accuracy_value', 'NONE');
#61 = CARTESIAN_POINT ( 'NONE',  ( 206.3146346851881400, 65.22153625845361100, 0.0000000000000000000 ) ) ;
#62 = SURFACE_STYLE_FILL_AREA ( #175 ) ;
#63 = PRODUCT_DEFINITION ( 'Î´Öª', '', #42, #88 ) ;
#64 = FILL_AREA_STYLE_COLOUR ( '', #130 ) ;
#65 = DIRECTION ( 'NONE',  ( 1.000000000000000000, 0.0000000000000000000, 0.0000000000000000000 ) ) ;
#66 = EDGE_CURVE ( 'NONE', #146, #166, #110, .T. ) ;
#67 =( LENGTH_UNIT ( ) NAMED_UNIT ( * ) SI_UNIT ( .MILLI., .METRE. ) );
#68 = PRESENTATION_STYLE_ASSIGNMENT (( #165 ) ) ;
#69 = DIRECTION ( 'NONE',  ( 0.0000000000000000000, -1.000000000000000000, -1.224646799147353000E-016 ) ) ;
#70 = DIRECTION ( 'NONE',  ( -1.000000000000000000, -0.0000000000000000000, -0.0000000000000000000 ) ) ;
#71 = DIRECTION ( 'NONE',  ( -1.000000000000000000, -0.0000000000000000000, -0.0000000000000000000 ) ) ;
#72 = CARTESIAN_POINT ( 'NONE',  ( 0.0000000000000000000, 0.0000000000000000000, 0.0000000000000000000 ) ) ;
#73 = SURFACE_STYLE_FILL_AREA ( #180 ) ;
#74 =( LENGTH_UNIT ( ) NAMED_UNIT ( * ) SI_UNIT ( .MILLI., .METRE. ) );
#75 = CIRCLE ( 'NONE', #32, 88.00000000000001400 ) ;
#76 = CARTESIAN_POINT ( 'NONE',  ( 119.9722928128483500, 65.22153625845356800, 0.0000000000000000000 ) ) ;
#77 =( GEOMETRIC_REPRESENTATION_CONTEXT ( 3 ) GLOBAL_UNCERTAINTY_ASSIGNED_CONTEXT ( ( #60 ) ) GLOBAL_UNIT_ASSIGNED_CONTEXT ( ( #67, #129, #172 ) ) REPRESENTATION_CONTEXT ( 'NONE', 'WORKASPACE' ) );
#78 = CARTESIAN_POINT ( 'NONE',  ( 115.0646346851881500, 65.22153625845356800, 0.0000000000000000000 ) ) ;
#79 = EDGE_LOOP ( 'NONE', ( #48, #125 ) ) ;
#80 = PRESENTATION_STYLE_ASSIGNMENT (( #49 ) ) ;
#81 = ORIENTED_EDGE ( 'NONE', *, *, #56, .F. ) ;
#82 = ORIENTED_EDGE ( 'NONE', *, *, #43, .F. ) ;
#83 = STYLED_ITEM ( 'NONE', ( #80 ), #29 ) ;
#84 = CIRCLE ( 'NONE', #159, 17.00000000000000000 ) ;
#85 = ORIENTED_EDGE ( 'NONE', *, *, #36, .T. ) ;
#86 = CARTESIAN_POINT ( 'NONE',  ( 115.0646346851881500, 65.22153625845356800, 17.00000000000000000 ) ) ;
#87 = FILL_AREA_STYLE_COLOUR ( '', #126 ) ;
#88 = PRODUCT_DEFINITION_CONTEXT ( 'detailed design', #182, 'design' ) ;
#89 = CARTESIAN_POINT ( 'NONE',  ( 115.0646346851881500, 65.22153625845356800, 0.0000000000000000000 ) ) ;
#90 = FACE_OUTER_BOUND ( 'NONE', #18, .T. ) ;
#91 =( LENGTH_UNIT ( ) NAMED_UNIT ( * ) SI_UNIT ( .MILLI., .METRE. ) );
#92 = APPLICATION_CONTEXT ( 'automotive_design' ) ;
#93 =( GEOMETRIC_REPRESENTATION_CONTEXT ( 3 ) GLOBAL_UNCERTAINTY_ASSIGNED_CONTEXT ( ( #5 ) ) GLOBAL_UNIT_ASSIGNED_CONTEXT ( ( #74, #40, #150 ) ) REPRESENTATION_CONTEXT ( 'NONE', 'WORKASPACE' ) );
#94 = DIRECTION ( 'NONE',  ( 0.0000000000000000000, 0.0000000000000000000, 1.000000000000000000 ) ) ;
#95 = SPHERICAL_SURFACE ( 'NONE', #15, 88.00000000000001400 ) ;
#96 = ORIENTED_EDGE ( 'NONE', *, *, #34, .T. ) ;
#97 = AXIS2_PLACEMENT_3D ( 'NONE', #104, #123, #25 ) ;
#98 = CARTESIAN_POINT ( 'NONE',  ( 115.0646346851881500, 65.22153625845356800, -17.00000000000000000 ) ) ;
#99 = ORIENTED_EDGE ( 'NONE', *, *, #157, .T. ) ;
#100 = DIRECTION ( 'NONE',  ( -1.000000000000000000, -0.0000000000000000000, -0.0000000000000000000 ) ) ;
#101 = CARTESIAN_POINT ( 'NONE',  ( 103.2333421658140700, 65.22153625845356800, 0.0000000000000000000 ) ) ;
#102 = ORIENTED_EDGE ( 'NONE', *, *, #157, .F. ) ;
#103 = DIRECTION ( 'NONE',  ( 0.0000000000000000000, -1.000000000000000000, 0.0000000000000000000 ) ) ;
#104 = CARTESIAN_POINT ( 'NONE',  ( 119.9722928128483500, 65.22153625845356800, 0.0000000000000000000 ) ) ;
#105 = PRODUCT_RELATED_PRODUCT_CATEGORY ( 'part', '', ( #162 ) ) ;
#106 = DIRECTION ( 'NONE',  ( 0.0000000000000000000, -1.000000000000000000, 0.0000000000000000000 ) ) ;
#107 = UNCERTAINTY_MEASURE_WITH_UNIT (LENGTH_MEASURE( 1.000000000000000100E-005 ), #91, 'distance_accuracy_value', 'NONE');
#108 = SHAPE_DEFINITION_REPRESENTATION ( #115, #45 ) ;
#109 = PRODUCT_CONTEXT ( 'NONE', #92, 'mechanical' ) ;
#110 = CIRCLE ( 'NONE', #132, 17.00000000000000000 ) ;
#111 = ADVANCED_FACE ( 'NONE', ( #51 ), #95, .F. ) ;
#112 = AXIS2_PLACEMENT_3D ( 'NONE', #76, #9, #37 ) ;
#113 = VERTEX_POINT ( 'NONE', #13 ) ;
#114 = MECHANICAL_DESIGN_GEOMETRIC_PRESENTATION_REPRESENTATION (  '', ( #1 ), #93 ) ;
#115 = PRODUCT_DEFINITION_SHAPE ( 'NONE', 'NONE',  #63 ) ;
#116 = DIRECTION ( 'NONE',  ( -1.000000000000000000, -0.0000000000000000000, -0.0000000000000000000 ) ) ;
#117 = ORIENTED_EDGE ( 'NONE', *, *, #184, .T. ) ;
#118 = DIRECTION ( 'NONE',  ( 0.0000000000000000000, 0.0000000000000000000, 1.000000000000000000 ) ) ;
#119 = CARTESIAN_POINT ( 'NONE',  ( 103.2333421658140700, 65.22153625845356800, 0.0000000000000000000 ) ) ;
#120 = CYLINDRICAL_SURFACE ( 'NONE', #17, 17.00000000000000000 ) ;
#121 = SURFACE_SIDE_STYLE ('',( #73 ) ) ;
#122 = ORIENTED_EDGE ( 'NONE', *, *, #36, .F. ) ;
#123 = DIRECTION ( 'NONE',  ( -1.000000000000000000, -0.0000000000000000000, -0.0000000000000000000 ) ) ;
#124 = DIRECTION ( 'NONE',  ( 0.0000000000000000000, 0.0000000000000000000, 1.000000000000000000 ) ) ;
#125 = ORIENTED_EDGE ( 'NONE', *, *, #4, .T. ) ;
#126 = COLOUR_RGB ( '',1.000000000000000000, 1.000000000000000000, 1.000000000000000000 ) ;
#127 = VERTEX_POINT ( 'NONE', #167 ) ;
#128 = ADVANCED_FACE ( 'NONE', ( #139 ), #120, .T. ) ;
#129 =( NAMED_UNIT ( * ) PLANE_ANGLE_UNIT ( ) SI_UNIT ( $, .RADIAN. ) );
#130 = COLOUR_RGB ( '',1.000000000000000000, 1.000000000000000000, 1.000000000000000000 ) ;
#131 = CIRCLE ( 'NONE', #97, 17.00000000000000000 ) ;
#132 = AXIS2_PLACEMENT_3D ( 'NONE', #28, #178, #141 ) ;
#133 = ORIENTED_EDGE ( 'NONE', *, *, #20, .F. ) ;
#134 = CARTESIAN_POINT ( 'NONE',  ( 206.3146346851881400, 65.22153625845361100, 0.0000000000000000000 ) ) ;
#135 = PLANE ( 'NONE',  #151 ) ;
#136 = SURFACE_SIDE_STYLE ('',( #62 ) ) ;
#137 = DIRECTION ( 'NONE',  ( 0.0000000000000000000, 0.0000000000000000000, -1.000000000000000000 ) ) ;
#138 =( NAMED_UNIT ( * ) PLANE_ANGLE_UNIT ( ) SI_UNIT ( $, .RADIAN. ) );
#139 = FACE_OUTER_BOUND ( 'NONE', #171, .T. ) ;
#140 = DIRECTION ( 'NONE',  ( 0.0000000000000000000, 0.0000000000000000000, 1.000000000000000000 ) ) ;
#141 = DIRECTION ( 'NONE',  ( 0.0000000000000000000, 0.0000000000000000000, 1.000000000000000000 ) ) ;
#142 = CARTESIAN_POINT ( 'NONE',  ( 119.9722928128483500, 65.22153625845356800, 0.0000000000000000000 ) ) ;
#143 = ORIENTED_EDGE ( 'NONE', *, *, #20, .T. ) ;
#144 = AXIS2_PLACEMENT_3D ( 'NONE', #142, #149, #52 ) ;
#145 = CARTESIAN_POINT ( 'NONE',  ( 103.2333421658140700, 65.22153625845356800, -17.00000000000000000 ) ) ;
#146 = VERTEX_POINT ( 'NONE', #163 ) ;
#147 = CARTESIAN_POINT ( 'NONE',  ( 119.9722928128483500, 65.22153625845356800, -17.00000000000000000 ) ) ;
#148 = EDGE_CURVE ( 'NONE', #166, #113, #131, .T. ) ;
#149 = DIRECTION ( 'NONE',  ( -1.000000000000000000, -0.0000000000000000000, -0.0000000000000000000 ) ) ;
#150 =( NAMED_UNIT ( * ) SI_UNIT ( $, .STERADIAN. ) SOLID_ANGLE_UNIT ( ) );
#151 = AXIS2_PLACEMENT_3D ( 'NONE', #89, #23, #137 ) ;
#152 = FACE_OUTER_BOUND ( 'NONE', #31, .T. ) ;
#153 = ADVANCED_FACE ( 'NONE', ( #152 ), #2, .F. ) ;
#154 = AXIS2_PLACEMENT_3D ( 'NONE', #54, #140, #106 ) ;
#155 = PRESENTATION_LAYER_ASSIGNMENT (  '', '', ( #83 ) ) ;
#156 = DIRECTION ( 'NONE',  ( -1.000000000000000000, 0.0000000000000000000, 0.0000000000000000000 ) ) ;
#157 = EDGE_CURVE ( 'NONE', #44, #146, #10, .T. ) ;
#158 = VECTOR ( 'NONE', #100, 1000.000000000000000 ) ;
#159 = AXIS2_PLACEMENT_3D ( 'NONE', #78, #181, #118 ) ;
#160 = ORIENTED_EDGE ( 'NONE', *, *, #4, .F. ) ;
#161 = CARTESIAN_POINT ( 'NONE',  ( 115.0646346851881500, 65.22153625845356800, 0.0000000000000000000 ) ) ;
#162 = PRODUCT ( '120043', '120043', '', ( #109 ) ) ;
#163 = CARTESIAN_POINT ( 'NONE',  ( 119.9722928128483500, 48.22153625845360400, 0.0000000000000000000 ) ) ;
#164 = FACE_OUTER_BOUND ( 'NONE', #79, .T. ) ;
#165 = SURFACE_STYLE_USAGE ( .BOTH. , #121 ) ;
#166 = VERTEX_POINT ( 'NONE', #7 ) ;
#167 = CARTESIAN_POINT ( 'NONE',  ( 118.3146346851881400, 65.22153625845361100, 0.0000000000000000000 ) ) ;
#168 = MECHANICAL_DESIGN_GEOMETRIC_PRESENTATION_REPRESENTATION (  '', ( #83 ), #77 ) ;
#169 = APPLICATION_PROTOCOL_DEFINITION ( 'draft international standard', 'automotive_design', 1998, #182 ) ;
#170 = LINE ( 'NONE', #145, #30 ) ;
#171 = EDGE_LOOP ( 'NONE', ( #117, #85, #81, #47, #183 ) ) ;
#172 =( NAMED_UNIT ( * ) SI_UNIT ( $, .STERADIAN. ) SOLID_ANGLE_UNIT ( ) );
#173 = LINE ( 'NONE', #174, #158 ) ;
#174 = CARTESIAN_POINT ( 'NONE',  ( 103.2333421658140700, 65.22153625845356800, 17.00000000000000000 ) ) ;
#175 = FILL_AREA_STYLE ('',( #87 ) ) ;
#176 = PRESENTATION_LAYER_ASSIGNMENT (  '', '', ( #1 ) ) ;
#177 = AXIS2_PLACEMENT_3D ( 'NONE', #161, #70, #22 ) ;
#178 = DIRECTION ( 'NONE',  ( -1.000000000000000000, -0.0000000000000000000, -0.0000000000000000000 ) ) ;
#179 = AXIS2_PLACEMENT_3D ( 'NONE', #119, #71, #41 ) ;
#180 = FILL_AREA_STYLE ('',( #64 ) ) ;
#181 = DIRECTION ( 'NONE',  ( -1.000000000000000000, -0.0000000000000000000, -0.0000000000000000000 ) ) ;
#182 = APPLICATION_CONTEXT ( 'automotive_design' ) ;
#183 = ORIENTED_EDGE ( 'NONE', *, *, #148, .T. ) ;
#184 = EDGE_CURVE ( 'NONE', #113, #44, #38, .T. ) ;
#185 = ADVANCED_FACE ( 'NONE', ( #90 ), #16, .T. ) ;
#186 = CIRCLE ( 'NONE', #57, 88.00000000000001400 ) ;
ENDSEC;
END-ISO-10303-21;
