ISO-10303-21;
HEADER;
FILE_DESCRIPTION (( 'STEP AP214' ),
    '1' );
FILE_NAME ('120120.STEP',
    '2019-06-19T01:22:03',
    ( '' ),
    ( '' ),
    'SwSTEP 2.0',
    'SolidWorks 2016',
    '' );
FILE_SCHEMA (( 'AUTOMOTIVE_DESIGN' ));
ENDSEC;

DATA;
#1 = DIRECTION ( 'NONE',  ( -1.000000000000000000, -0.0000000000000000000, -0.0000000000000000000 ) ) ;
#2 = DIRECTION ( 'NONE',  ( 0.0000000000000000000, 0.0000000000000000000, 1.000000000000000000 ) ) ;
#3 = EDGE_CURVE ( 'NONE', #70, #83, #133, .T. ) ;
#4 = ORIENTED_EDGE ( 'NONE', *, *, #156, .F. ) ;
#5 = AXIS2_PLACEMENT_3D ( 'NONE', #101, #87, #2 ) ;
#6 =( GEOMETRIC_REPRESENTATION_CONTEXT ( 3 ) GLOBAL_UNCERTAINTY_ASSIGNED_CONTEXT ( ( #84 ) ) GLOBAL_UNIT_ASSIGNED_CONTEXT ( ( #75, #185, #170 ) ) REPRESENTATION_CONTEXT ( 'NONE', 'WORKASPACE' ) );
#7 = ORIENTED_EDGE ( 'NONE', *, *, #167, .T. ) ;
#8 = COLOUR_RGB ( '',1.000000000000000000, 1.000000000000000000, 1.000000000000000000 ) ;
#9 = DIRECTION ( 'NONE',  ( 0.0000000000000000000, 0.0000000000000000000, 1.000000000000000000 ) ) ;
#10 = EDGE_CURVE ( 'NONE', #73, #109, #127, .T. ) ;
#11 = CARTESIAN_POINT ( 'NONE',  ( 11.15698987586548600, 6.515563045701520100, 0.0000000000000000000 ) ) ;
#12 = DIRECTION ( 'NONE',  ( 1.000000000000000000, 0.0000000000000000000, 0.0000000000000000000 ) ) ;
#13 = DIRECTION ( 'NONE',  ( 0.0000000000000000000, 1.000000000000000000, 1.224646799147353500E-016 ) ) ;
#14 =( LENGTH_UNIT ( ) NAMED_UNIT ( * ) SI_UNIT ( .MILLI., .METRE. ) );
#15 = EDGE_LOOP ( 'NONE', ( #132, #183, #107, #45, #22 ) ) ;
#16 = APPLICATION_CONTEXT ( 'automotive_design' ) ;
#17 = AXIS2_PLACEMENT_3D ( 'NONE', #30, #80, #33 ) ;
#18 = CARTESIAN_POINT ( 'NONE',  ( 13.60714325731514200, 8.515563045701519200, 0.0000000000000000000 ) ) ;
#19 = CIRCLE ( 'NONE', #103, 2.000000000000000900 ) ;
#20 = DIRECTION ( 'NONE',  ( -1.000000000000000000, -0.0000000000000000000, -0.0000000000000000000 ) ) ;
#21 = CARTESIAN_POINT ( 'NONE',  ( 10.34201531756644400, 6.515563045701520100, 2.000000000000000900 ) ) ;
#22 = ORIENTED_EDGE ( 'NONE', *, *, #82, .F. ) ;
#23 = MECHANICAL_DESIGN_GEOMETRIC_PRESENTATION_REPRESENTATION (  '', ( #79 ), #58 ) ;
#24 = CIRCLE ( 'NONE', #54, 2.000000000000000900 ) ;
#25 = EDGE_CURVE ( 'NONE', #116, #70, #171, .T. ) ;
#26 = ADVANCED_FACE ( 'NONE', ( #64 ), #126, .F. ) ;
#27 =( GEOMETRIC_REPRESENTATION_CONTEXT ( 3 ) GLOBAL_UNCERTAINTY_ASSIGNED_CONTEXT ( ( #39 ) ) GLOBAL_UNIT_ASSIGNED_CONTEXT ( ( #14, #108, #34 ) ) REPRESENTATION_CONTEXT ( 'NONE', 'WORKASPACE' ) );
#28 = FACE_OUTER_BOUND ( 'NONE', #15, .T. ) ;
#29 = DIRECTION ( 'NONE',  ( -1.000000000000000000, -0.0000000000000000000, -0.0000000000000000000 ) ) ;
#30 = CARTESIAN_POINT ( 'NONE',  ( 15.23698987586548800, 6.515563045701518300, 0.0000000000000000000 ) ) ;
#31 = FILL_AREA_STYLE ('',( #110 ) ) ;
#32 = AXIS2_PLACEMENT_3D ( 'NONE', #136, #138, #12 ) ;
#33 = DIRECTION ( 'NONE',  ( 0.0000000000000000000, 1.000000000000000000, 0.0000000000000000000 ) ) ;
#34 =( NAMED_UNIT ( * ) SI_UNIT ( $, .STERADIAN. ) SOLID_ANGLE_UNIT ( ) );
#35 = FACE_OUTER_BOUND ( 'NONE', #177, .T. ) ;
#36 = CARTESIAN_POINT ( 'NONE',  ( 15.23698987586548800, 6.515563045701518300, 0.0000000000000000000 ) ) ;
#37 = CARTESIAN_POINT ( 'NONE',  ( 11.15698987586548600, 6.515563045701520100, 2.000000000000000900 ) ) ;
#38 = AXIS2_PLACEMENT_3D ( 'NONE', #81, #179, #9 ) ;
#39 = UNCERTAINTY_MEASURE_WITH_UNIT (LENGTH_MEASURE( 1.000000000000000100E-005 ), #14, 'distance_accuracy_value', 'NONE');
#40 = ORIENTED_EDGE ( 'NONE', *, *, #139, .F. ) ;
#41 = ORIENTED_EDGE ( 'NONE', *, *, #43, .T. ) ;
#42 = PRESENTATION_LAYER_ASSIGNMENT (  '', '', ( #61 ) ) ;
#43 = EDGE_CURVE ( 'NONE', #116, #118, #92, .T. ) ;
#44 = DIRECTION ( 'NONE',  ( 0.0000000000000000000, 1.224646799147353200E-016, -1.000000000000000000 ) ) ;
#45 = ORIENTED_EDGE ( 'NONE', *, *, #10, .T. ) ;
#46 = DIRECTION ( 'NONE',  ( -1.000000000000000000, -0.0000000000000000000, -0.0000000000000000000 ) ) ;
#47 =( NAMED_UNIT ( * ) PLANE_ANGLE_UNIT ( ) SI_UNIT ( $, .RADIAN. ) );
#48 = DIRECTION ( 'NONE',  ( 0.0000000000000000000, 0.0000000000000000000, 1.000000000000000000 ) ) ;
#49 = DIRECTION ( 'NONE',  ( 0.0000000000000000000, 0.0000000000000000000, -1.000000000000000000 ) ) ;
#50 = DIRECTION ( 'NONE',  ( -1.000000000000000000, -0.0000000000000000000, -0.0000000000000000000 ) ) ;
#51 = PRODUCT ( '120120', '120120', '', ( #137 ) ) ;
#52 = ORIENTED_EDGE ( 'NONE', *, *, #82, .T. ) ;
#53 = AXIS2_PLACEMENT_3D ( 'NONE', #106, #44, #13 ) ;
#54 = AXIS2_PLACEMENT_3D ( 'NONE', #135, #29, #121 ) ;
#55 = CIRCLE ( 'NONE', #53, 2.579999999999999600 ) ;
#56 = CARTESIAN_POINT ( 'NONE',  ( 12.65698987586548800, 6.515563045701518300, 0.0000000000000000000 ) ) ;
#57 = PRODUCT_DEFINITION_CONTEXT ( 'detailed design', #123, 'design' ) ;
#58 =( GEOMETRIC_REPRESENTATION_CONTEXT ( 3 ) GLOBAL_UNCERTAINTY_ASSIGNED_CONTEXT ( ( #148 ) ) GLOBAL_UNIT_ASSIGNED_CONTEXT ( ( #124, #47, #184 ) ) REPRESENTATION_CONTEXT ( 'NONE', 'WORKASPACE' ) );
#59 = CARTESIAN_POINT ( 'NONE',  ( 11.15698987586548600, 6.515563045701520100, -2.000000000000000900 ) ) ;
#60 = CIRCLE ( 'NONE', #155, 2.000000000000000900 ) ;
#61 = STYLED_ITEM ( 'NONE', ( #178 ), #65 ) ;
#62 = FILL_AREA_STYLE_COLOUR ( '', #173 ) ;
#63 = CARTESIAN_POINT ( 'NONE',  ( 11.15698987586548600, 6.515563045701520100, 0.0000000000000000000 ) ) ;
#64 = FACE_OUTER_BOUND ( 'NONE', #78, .T. ) ;
#65 = MANIFOLD_SOLID_BREP ( 'Ðý×ª1', #158 ) ;
#66 = SURFACE_STYLE_FILL_AREA ( #31 ) ;
#67 = AXIS2_PLACEMENT_3D ( 'NONE', #72, #163, #122 ) ;
#68 = VECTOR ( 'NONE', #20, 1000.000000000000000 ) ;
#69 = AXIS2_PLACEMENT_3D ( 'NONE', #162, #94, #152 ) ;
#70 = VERTEX_POINT ( 'NONE', #154 ) ;
#71 = DIRECTION ( 'NONE',  ( 0.0000000000000000000, 0.0000000000000000000, 1.000000000000000000 ) ) ;
#72 = CARTESIAN_POINT ( 'NONE',  ( 15.23698987586548800, 6.515563045701518300, 0.0000000000000000000 ) ) ;
#73 = VERTEX_POINT ( 'NONE', #85 ) ;
#74 = PRODUCT_RELATED_PRODUCT_CATEGORY ( 'part', '', ( #51 ) ) ;
#75 =( LENGTH_UNIT ( ) NAMED_UNIT ( * ) SI_UNIT ( .MILLI., .METRE. ) );
#76 = FACE_OUTER_BOUND ( 'NONE', #105, .T. ) ;
#77 = ORIENTED_EDGE ( 'NONE', *, *, #43, .F. ) ;
#78 = EDGE_LOOP ( 'NONE', ( #144, #52 ) ) ;
#79 = STYLED_ITEM ( 'NONE', ( #153 ), #159 ) ;
#80 = DIRECTION ( 'NONE',  ( 0.0000000000000000000, 0.0000000000000000000, -1.000000000000000000 ) ) ;
#81 = CARTESIAN_POINT ( 'NONE',  ( 10.34201531756644400, 6.515563045701520100, 0.0000000000000000000 ) ) ;
#82 = EDGE_CURVE ( 'NONE', #83, #109, #19, .T. ) ;
#83 = VERTEX_POINT ( 'NONE', #59 ) ;
#84 = UNCERTAINTY_MEASURE_WITH_UNIT (LENGTH_MEASURE( 1.000000000000000100E-005 ), #75, 'distance_accuracy_value', 'NONE');
#85 = CARTESIAN_POINT ( 'NONE',  ( 13.60714325731514200, 6.515563045701520100, 2.000000000000000900 ) ) ;
#86 = CARTESIAN_POINT ( 'NONE',  ( 10.34201531756644400, 6.515563045701520100, -2.000000000000000900 ) ) ;
#87 = DIRECTION ( 'NONE',  ( -1.000000000000000000, -0.0000000000000000000, -0.0000000000000000000 ) ) ;
#88 = AXIS2_PLACEMENT_3D ( 'NONE', #113, #1, #134 ) ;
#89 = CIRCLE ( 'NONE', #69, 2.000000000000000900 ) ;
#90 = PRODUCT_DEFINITION ( 'Î´Öª', '', #119, #57 ) ;
#91 = PRODUCT_DEFINITION_SHAPE ( 'NONE', 'NONE',  #90 ) ;
#92 = CIRCLE ( 'NONE', #140, 2.579999999999999200 ) ;
#93 = SURFACE_SIDE_STYLE ('',( #66 ) ) ;
#94 = DIRECTION ( 'NONE',  ( -1.000000000000000000, -0.0000000000000000000, -0.0000000000000000000 ) ) ;
#95 = VERTEX_POINT ( 'NONE', #99 ) ;
#96 = APPLICATION_PROTOCOL_DEFINITION ( 'draft international standard', 'automotive_design', 1998, #123 ) ;
#97 = DIRECTION ( 'NONE',  ( 1.000000000000000000, 0.0000000000000000000, 0.0000000000000000000 ) ) ;
#98 = PRESENTATION_LAYER_ASSIGNMENT (  '', '', ( #79 ) ) ;
#99 = CARTESIAN_POINT ( 'NONE',  ( 13.60714325731514200, 4.515563045701518300, -2.449293598294705900E-016 ) ) ;
#100 = DIRECTION ( 'NONE',  ( 1.000000000000000000, 0.0000000000000000000, 0.0000000000000000000 ) ) ;
#101 = CARTESIAN_POINT ( 'NONE',  ( 13.60714325731514200, 6.515563045701520100, 0.0000000000000000000 ) ) ;
#102 = SURFACE_STYLE_FILL_AREA ( #115 ) ;
#103 = AXIS2_PLACEMENT_3D ( 'NONE', #111, #186, #114 ) ;
#104 = CIRCLE ( 'NONE', #181, 2.000000000000000900 ) ;
#105 = EDGE_LOOP ( 'NONE', ( #147, #143, #40, #145, #7 ) ) ;
#106 = CARTESIAN_POINT ( 'NONE',  ( 15.23698987586548800, 6.515563045701518300, 0.0000000000000000000 ) ) ;
#107 = ORIENTED_EDGE ( 'NONE', *, *, #149, .T. ) ;
#108 =( NAMED_UNIT ( * ) PLANE_ANGLE_UNIT ( ) SI_UNIT ( $, .RADIAN. ) );
#109 = VERTEX_POINT ( 'NONE', #37 ) ;
#110 = FILL_AREA_STYLE_COLOUR ( '', #8 ) ;
#111 = CARTESIAN_POINT ( 'NONE',  ( 11.15698987586548600, 6.515563045701520100, 0.0000000000000000000 ) ) ;
#112 = EDGE_LOOP ( 'NONE', ( #4, #160, #131, #41 ) ) ;
#113 = CARTESIAN_POINT ( 'NONE',  ( 10.34201531756644400, 6.515563045701520100, 0.0000000000000000000 ) ) ;
#114 = DIRECTION ( 'NONE',  ( 0.0000000000000000000, 0.0000000000000000000, 1.000000000000000000 ) ) ;
#115 = FILL_AREA_STYLE ('',( #62 ) ) ;
#116 = VERTEX_POINT ( 'NONE', #18 ) ;
#117 = ADVANCED_FACE ( 'NONE', ( #28 ), #176, .T. ) ;
#118 = VERTEX_POINT ( 'NONE', #56 ) ;
#119 = PRODUCT_DEFINITION_FORMATION_WITH_SPECIFIED_SOURCE ( 'ÈÎºÎ', '', #51, .NOT_KNOWN. ) ;
#120 = ORIENTED_EDGE ( 'NONE', *, *, #167, .F. ) ;
#121 = DIRECTION ( 'NONE',  ( 0.0000000000000000000, 0.0000000000000000000, 1.000000000000000000 ) ) ;
#122 = DIRECTION ( 'NONE',  ( 0.0000000000000000000, 1.000000000000000000, 0.0000000000000000000 ) ) ;
#123 = APPLICATION_CONTEXT ( 'automotive_design' ) ;
#124 =( LENGTH_UNIT ( ) NAMED_UNIT ( * ) SI_UNIT ( .MILLI., .METRE. ) );
#125 = SURFACE_STYLE_USAGE ( .BOTH. , #169 ) ;
#126 = PLANE ( 'NONE',  #130 ) ;
#127 = LINE ( 'NONE', #21, #68 ) ;
#128 = SPHERICAL_SURFACE ( 'NONE', #17, 2.579999999999999600 ) ;
#129 = EDGE_CURVE ( 'NONE', #70, #95, #104, .T. ) ;
#130 = AXIS2_PLACEMENT_3D ( 'NONE', #63, #97, #49 ) ;
#131 = ORIENTED_EDGE ( 'NONE', *, *, #25, .F. ) ;
#132 = ORIENTED_EDGE ( 'NONE', *, *, #3, .F. ) ;
#133 = LINE ( 'NONE', #86, #161 ) ;
#134 = DIRECTION ( 'NONE',  ( 0.0000000000000000000, 0.0000000000000000000, 1.000000000000000000 ) ) ;
#135 = CARTESIAN_POINT ( 'NONE',  ( 13.60714325731514200, 6.515563045701520100, 0.0000000000000000000 ) ) ;
#136 = CARTESIAN_POINT ( 'NONE',  ( 0.0000000000000000000, 0.0000000000000000000, 0.0000000000000000000 ) ) ;
#137 = PRODUCT_CONTEXT ( 'NONE', #16, 'mechanical' ) ;
#138 = DIRECTION ( 'NONE',  ( 0.0000000000000000000, 0.0000000000000000000, 1.000000000000000000 ) ) ;
#139 = EDGE_CURVE ( 'NONE', #109, #83, #60, .T. ) ;
#140 = AXIS2_PLACEMENT_3D ( 'NONE', #36, #48, #100 ) ;
#141 = SHAPE_DEFINITION_REPRESENTATION ( #91, #159 ) ;
#142 = SPHERICAL_SURFACE ( 'NONE', #67, 2.579999999999999600 ) ;
#143 = ORIENTED_EDGE ( 'NONE', *, *, #3, .T. ) ;
#144 = ORIENTED_EDGE ( 'NONE', *, *, #139, .T. ) ;
#145 = ORIENTED_EDGE ( 'NONE', *, *, #10, .F. ) ;
#146 = CYLINDRICAL_SURFACE ( 'NONE', #38, 2.000000000000000900 ) ;
#147 = ORIENTED_EDGE ( 'NONE', *, *, #25, .T. ) ;
#148 = UNCERTAINTY_MEASURE_WITH_UNIT (LENGTH_MEASURE( 1.000000000000000100E-005 ), #124, 'distance_accuracy_value', 'NONE');
#149 = EDGE_CURVE ( 'NONE', #95, #73, #89, .T. ) ;
#150 = DIRECTION ( 'NONE',  ( 0.0000000000000000000, 0.0000000000000000000, 1.000000000000000000 ) ) ;
#151 = ORIENTED_EDGE ( 'NONE', *, *, #156, .T. ) ;
#152 = DIRECTION ( 'NONE',  ( 0.0000000000000000000, 0.0000000000000000000, 1.000000000000000000 ) ) ;
#153 = PRESENTATION_STYLE_ASSIGNMENT (( #166 ) ) ;
#154 = CARTESIAN_POINT ( 'NONE',  ( 13.60714325731514200, 6.515563045701520100, -2.000000000000000900 ) ) ;
#155 = AXIS2_PLACEMENT_3D ( 'NONE', #11, #182, #150 ) ;
#156 = EDGE_CURVE ( 'NONE', #95, #118, #55, .T. ) ;
#157 = ADVANCED_FACE ( 'NONE', ( #168 ), #128, .F. ) ;
#158 = CLOSED_SHELL ( 'NONE', ( #174, #172, #157, #117, #26 ) ) ;
#159 = ADVANCED_BREP_SHAPE_REPRESENTATION ( '120120', ( #65, #32 ), #27 ) ;
#160 = ORIENTED_EDGE ( 'NONE', *, *, #129, .F. ) ;
#161 = VECTOR ( 'NONE', #50, 1000.000000000000000 ) ;
#162 = CARTESIAN_POINT ( 'NONE',  ( 13.60714325731514200, 6.515563045701520100, 0.0000000000000000000 ) ) ;
#163 = DIRECTION ( 'NONE',  ( 0.0000000000000000000, 0.0000000000000000000, -1.000000000000000000 ) ) ;
#164 = APPLICATION_PROTOCOL_DEFINITION ( 'draft international standard', 'automotive_design', 1998, #16 ) ;
#165 = CARTESIAN_POINT ( 'NONE',  ( 13.60714325731514200, 6.515563045701520100, 0.0000000000000000000 ) ) ;
#166 = SURFACE_STYLE_USAGE ( .BOTH. , #93 ) ;
#167 = EDGE_CURVE ( 'NONE', #73, #116, #24, .T. ) ;
#168 = FACE_OUTER_BOUND ( 'NONE', #112, .T. ) ;
#169 = SURFACE_SIDE_STYLE ('',( #102 ) ) ;
#170 =( NAMED_UNIT ( * ) SI_UNIT ( $, .STERADIAN. ) SOLID_ANGLE_UNIT ( ) );
#171 = CIRCLE ( 'NONE', #5, 2.000000000000000900 ) ;
#172 = ADVANCED_FACE ( 'NONE', ( #35 ), #142, .F. ) ;
#173 = COLOUR_RGB ( '',1.000000000000000000, 1.000000000000000000, 1.000000000000000000 ) ;
#174 = ADVANCED_FACE ( 'NONE', ( #76 ), #146, .T. ) ;
#175 = ORIENTED_EDGE ( 'NONE', *, *, #149, .F. ) ;
#176 = CYLINDRICAL_SURFACE ( 'NONE', #88, 2.000000000000000900 ) ;
#177 = EDGE_LOOP ( 'NONE', ( #175, #151, #77, #120 ) ) ;
#178 = PRESENTATION_STYLE_ASSIGNMENT (( #125 ) ) ;
#179 = DIRECTION ( 'NONE',  ( -1.000000000000000000, -0.0000000000000000000, -0.0000000000000000000 ) ) ;
#180 = MECHANICAL_DESIGN_GEOMETRIC_PRESENTATION_REPRESENTATION (  '', ( #61 ), #6 ) ;
#181 = AXIS2_PLACEMENT_3D ( 'NONE', #165, #46, #71 ) ;
#182 = DIRECTION ( 'NONE',  ( -1.000000000000000000, -0.0000000000000000000, -0.0000000000000000000 ) ) ;
#183 = ORIENTED_EDGE ( 'NONE', *, *, #129, .T. ) ;
#184 =( NAMED_UNIT ( * ) SI_UNIT ( $, .STERADIAN. ) SOLID_ANGLE_UNIT ( ) );
#185 =( NAMED_UNIT ( * ) PLANE_ANGLE_UNIT ( ) SI_UNIT ( $, .RADIAN. ) );
#186 = DIRECTION ( 'NONE',  ( -1.000000000000000000, -0.0000000000000000000, -0.0000000000000000000 ) ) ;
ENDSEC;
END-ISO-10303-21;
