ISO-10303-21;
HEADER;
FILE_DESCRIPTION (( 'STEP AP214' ),
    '1' );
FILE_NAME ('120134.STEP',
    '2019-06-19T06:32:19',
    ( '' ),
    ( '' ),
    'SwSTEP 2.0',
    'SolidWorks 2016',
    '' );
FILE_SCHEMA (( 'AUTOMOTIVE_DESIGN' ));
ENDSEC;

DATA;
#1 = ORIENTED_EDGE ( 'NONE', *, *, #8, .F. ) ;
#2 = DIRECTION ( 'NONE',  ( -1.000000000000000000, 3.159171411554934600E-016, -0.0000000000000000000 ) ) ;
#3 = PLANE ( 'NONE',  #94 ) ;
#4 = SURFACE_STYLE_USAGE ( .BOTH. , #160 ) ;
#5 = DIRECTION ( 'NONE',  ( -1.000000000000000000, 3.159171411554934600E-016, -0.0000000000000000000 ) ) ;
#6 = ORIENTED_EDGE ( 'NONE', *, *, #139, .T. ) ;
#7 = PRODUCT_CONTEXT ( 'NONE', #121, 'mechanical' ) ;
#8 = EDGE_CURVE ( 'NONE', #159, #26, #150, .T. ) ;
#9 = APPLICATION_PROTOCOL_DEFINITION ( 'draft international standard', 'automotive_design', 1998, #81 ) ;
#10 = SPHERICAL_SURFACE ( 'NONE', #74, 16.27000000000000000 ) ;
#11 = FACE_OUTER_BOUND ( 'NONE', #77, .T. ) ;
#12 = AXIS2_PLACEMENT_3D ( 'NONE', #87, #93, #22 ) ;
#13 = SURFACE_STYLE_FILL_AREA ( #15 ) ;
#14 = ADVANCED_FACE ( 'NONE', ( #11 ), #10, .F. ) ;
#15 = FILL_AREA_STYLE ('',( #114 ) ) ;
#16 = CARTESIAN_POINT ( 'NONE',  ( 22.42423205362066000, 18.03112609140304200, 6.123233995736768300E-016 ) ) ;
#17 = CARTESIAN_POINT ( 'NONE',  ( 22.42423205362066000, 13.03112609140304200, 0.0000000000000000000 ) ) ;
#18 = VERTEX_POINT ( 'NONE', #28 ) ;
#19 = MECHANICAL_DESIGN_GEOMETRIC_PRESENTATION_REPRESENTATION (  '', ( #71 ), #65 ) ;
#20 = CARTESIAN_POINT ( 'NONE',  ( 22.42423205362066000, 13.03112609140304200, 0.0000000000000000000 ) ) ;
#21 = ORIENTED_EDGE ( 'NONE', *, *, #124, .F. ) ;
#22 = DIRECTION ( 'NONE',  ( 0.0000000000000000000, -1.000000000000000000, 0.0000000000000000000 ) ) ;
#23 = SURFACE_STYLE_USAGE ( .BOTH. , #32 ) ;
#24 = AXIS2_PLACEMENT_3D ( 'NONE', #122, #45, #120 ) ;
#25 = CYLINDRICAL_SURFACE ( 'NONE', #102, 5.000000000000000900 ) ;
#26 = VERTEX_POINT ( 'NONE', #16 ) ;
#27 = DIRECTION ( 'NONE',  ( 0.0000000000000000000, 0.0000000000000000000, -1.000000000000000000 ) ) ;
#28 = CARTESIAN_POINT ( 'NONE',  ( 23.92423205362066000, 13.03112609140304400, 0.0000000000000000000 ) ) ;
#29 = AXIS2_PLACEMENT_3D ( 'NONE', #136, #46, #148 ) ;
#30 =( NAMED_UNIT ( * ) SI_UNIT ( $, .STERADIAN. ) SOLID_ANGLE_UNIT ( ) );
#31 = AXIS2_PLACEMENT_3D ( 'NONE', #42, #91, #47 ) ;
#32 = SURFACE_SIDE_STYLE ('',( #13 ) ) ;
#33 = DIRECTION ( 'NONE',  ( 0.0000000000000000000, 1.000000000000000000, 1.224646799147353200E-016 ) ) ;
#34 = VERTEX_POINT ( 'NONE', #85 ) ;
#35 = AXIS2_PLACEMENT_3D ( 'NONE', #142, #58, #116 ) ;
#36 = MECHANICAL_DESIGN_GEOMETRIC_PRESENTATION_REPRESENTATION (  '', ( #89 ), #119 ) ;
#37 = FACE_OUTER_BOUND ( 'NONE', #112, .T. ) ;
#38 = ORIENTED_EDGE ( 'NONE', *, *, #60, .T. ) ;
#39 = FACE_OUTER_BOUND ( 'NONE', #104, .T. ) ;
#40 = CARTESIAN_POINT ( 'NONE',  ( 24.71156755425234400, 8.031126091403033100, -6.123233995736773200E-016 ) ) ;
#41 = FACE_OUTER_BOUND ( 'NONE', #43, .T. ) ;
#42 = CARTESIAN_POINT ( 'NONE',  ( 0.0000000000000000000, 0.0000000000000000000, 0.0000000000000000000 ) ) ;
#43 = EDGE_LOOP ( 'NONE', ( #6, #66, #1, #21 ) ) ;
#44 = APPLICATION_PROTOCOL_DEFINITION ( 'draft international standard', 'automotive_design', 1998, #121 ) ;
#45 = DIRECTION ( 'NONE',  ( 0.0000000000000000000, 0.0000000000000000000, 1.000000000000000000 ) ) ;
#46 = DIRECTION ( 'NONE',  ( -1.000000000000000000, 3.159171411554934600E-016, -0.0000000000000000000 ) ) ;
#47 = DIRECTION ( 'NONE',  ( 1.000000000000000000, 0.0000000000000000000, 0.0000000000000000000 ) ) ;
#48 = FACE_OUTER_BOUND ( 'NONE', #82, .T. ) ;
#49 =( GEOMETRIC_REPRESENTATION_CONTEXT ( 3 ) GLOBAL_UNCERTAINTY_ASSIGNED_CONTEXT ( ( #115 ) ) GLOBAL_UNIT_ASSIGNED_CONTEXT ( ( #78, #137, #97 ) ) REPRESENTATION_CONTEXT ( 'NONE', 'WORKASPACE' ) );
#50 = VERTEX_POINT ( 'NONE', #40 ) ;
#51 = EDGE_CURVE ( 'NONE', #34, #26, #69, .T. ) ;
#52 = PRODUCT_DEFINITION_CONTEXT ( 'detailed design', #81, 'design' ) ;
#53 = UNCERTAINTY_MEASURE_WITH_UNIT (LENGTH_MEASURE( 1.000000000000000100E-005 ), #96, 'distance_accuracy_value', 'NONE');
#54 = ADVANCED_FACE ( 'NONE', ( #37 ), #25, .T. ) ;
#55 = ADVANCED_FACE ( 'NONE', ( #48 ), #3, .F. ) ;
#56 = DIRECTION ( 'NONE',  ( -1.000000000000000000, 3.159171411554934600E-016, -0.0000000000000000000 ) ) ;
#57 = ORIENTED_EDGE ( 'NONE', *, *, #60, .F. ) ;
#58 = DIRECTION ( 'NONE',  ( -1.000000000000000000, 3.159171411554934600E-016, -0.0000000000000000000 ) ) ;
#59 =( LENGTH_UNIT ( ) NAMED_UNIT ( * ) SI_UNIT ( .MILLI., .METRE. ) );
#60 = EDGE_CURVE ( 'NONE', #26, #159, #113, .T. ) ;
#61 = DIRECTION ( 'NONE',  ( 4.264839522991535600E-016, 1.000000000000000000, 0.0000000000000000000 ) ) ;
#62 = CARTESIAN_POINT ( 'NONE',  ( 22.42423205362066000, 8.031126091403040200, 0.0000000000000000000 ) ) ;
#63 = MANIFOLD_SOLID_BREP ( 'Ðý×ª1', #72 ) ;
#64 = EDGE_CURVE ( 'NONE', #50, #18, #101, .T. ) ;
#65 =( GEOMETRIC_REPRESENTATION_CONTEXT ( 3 ) GLOBAL_UNCERTAINTY_ASSIGNED_CONTEXT ( ( #53 ) ) GLOBAL_UNIT_ASSIGNED_CONTEXT ( ( #96, #106, #30 ) ) REPRESENTATION_CONTEXT ( 'NONE', 'WORKASPACE' ) );
#66 = ORIENTED_EDGE ( 'NONE', *, *, #51, .T. ) ;
#67 = VECTOR ( 'NONE', #99, 1000.000000000000000 ) ;
#68 = ADVANCED_BREP_SHAPE_REPRESENTATION ( '120134', ( #63, #31 ), #49 ) ;
#69 = LINE ( 'NONE', #117, #127 ) ;
#70 = ADVANCED_FACE ( 'NONE', ( #41 ), #143, .T. ) ;
#71 = STYLED_ITEM ( 'NONE', ( #140 ), #68 ) ;
#72 = CLOSED_SHELL ( 'NONE', ( #70, #14, #86, #54, #55 ) ) ;
#73 = CARTESIAN_POINT ( 'NONE',  ( 40.19423205362065900, 13.03112609140303700, 0.0000000000000000000 ) ) ;
#74 = AXIS2_PLACEMENT_3D ( 'NONE', #73, #27, #145 ) ;
#75 = DIRECTION ( 'NONE',  ( 0.0000000000000000000, -1.000000000000000000, 0.0000000000000000000 ) ) ;
#76 = FILL_AREA_STYLE_COLOUR ( '', #118 ) ;
#77 = EDGE_LOOP ( 'NONE', ( #84, #90, #131 ) ) ;
#78 =( LENGTH_UNIT ( ) NAMED_UNIT ( * ) SI_UNIT ( .MILLI., .METRE. ) );
#79 = ORIENTED_EDGE ( 'NONE', *, *, #165, .F. ) ;
#80 = SPHERICAL_SURFACE ( 'NONE', #162, 16.27000000000000000 ) ;
#81 = APPLICATION_CONTEXT ( 'automotive_design' ) ;
#82 = EDGE_LOOP ( 'NONE', ( #130, #38 ) ) ;
#83 = UNCERTAINTY_MEASURE_WITH_UNIT (LENGTH_MEASURE( 1.000000000000000100E-005 ), #59, 'distance_accuracy_value', 'NONE');
#84 = ORIENTED_EDGE ( 'NONE', *, *, #139, .F. ) ;
#85 = CARTESIAN_POINT ( 'NONE',  ( 24.71156755425234400, 18.03112609140304600, 0.0000000000000000000 ) ) ;
#86 = ADVANCED_FACE ( 'NONE', ( #39 ), #80, .F. ) ;
#87 = CARTESIAN_POINT ( 'NONE',  ( 21.50597511808246100, 13.03112609140304200, 0.0000000000000000000 ) ) ;
#88 = CARTESIAN_POINT ( 'NONE',  ( 40.19423205362065900, 13.03112609140303700, 0.0000000000000000000 ) ) ;
#89 = STYLED_ITEM ( 'NONE', ( #141 ), #63 ) ;
#90 = ORIENTED_EDGE ( 'NONE', *, *, #64, .T. ) ;
#91 = DIRECTION ( 'NONE',  ( 0.0000000000000000000, 0.0000000000000000000, 1.000000000000000000 ) ) ;
#92 = SHAPE_DEFINITION_REPRESENTATION ( #138, #68 ) ;
#93 = DIRECTION ( 'NONE',  ( -1.000000000000000000, 3.159171411554934600E-016, -0.0000000000000000000 ) ) ;
#94 = AXIS2_PLACEMENT_3D ( 'NONE', #17, #105, #132 ) ;
#95 = CARTESIAN_POINT ( 'NONE',  ( 21.50597511808246100, 13.03112609140304200, 0.0000000000000000000 ) ) ;
#96 =( LENGTH_UNIT ( ) NAMED_UNIT ( * ) SI_UNIT ( .MILLI., .METRE. ) );
#97 =( NAMED_UNIT ( * ) SI_UNIT ( $, .STERADIAN. ) SOLID_ANGLE_UNIT ( ) );
#98 = DIRECTION ( 'NONE',  ( 0.0000000000000000000, 0.0000000000000000000, -1.000000000000000000 ) ) ;
#99 = DIRECTION ( 'NONE',  ( -1.000000000000000000, 3.159171411554934600E-016, -0.0000000000000000000 ) ) ;
#100 = CIRCLE ( 'NONE', #153, 5.000000000000002700 ) ;
#101 = CIRCLE ( 'NONE', #128, 16.27000000000000000 ) ;
#102 = AXIS2_PLACEMENT_3D ( 'NONE', #95, #56, #155 ) ;
#103 = PRESENTATION_LAYER_ASSIGNMENT (  '', '', ( #89 ) ) ;
#104 = EDGE_LOOP ( 'NONE', ( #107, #79, #164 ) ) ;
#105 = DIRECTION ( 'NONE',  ( 1.000000000000000000, -3.159171411554934600E-016, 0.0000000000000000000 ) ) ;
#106 =( NAMED_UNIT ( * ) PLANE_ANGLE_UNIT ( ) SI_UNIT ( $, .RADIAN. ) );
#107 = ORIENTED_EDGE ( 'NONE', *, *, #64, .F. ) ;
#108 = DIRECTION ( 'NONE',  ( 0.0000000000000000000, -1.000000000000000000, 0.0000000000000000000 ) ) ;
#109 = COLOUR_RGB ( '',1.000000000000000000, 1.000000000000000000, 1.000000000000000000 ) ;
#110 = PRODUCT_DEFINITION ( 'Î´Öª', '', #161, #52 ) ;
#111 = CIRCLE ( 'NONE', #29, 5.000000000000002700 ) ;
#112 = EDGE_LOOP ( 'NONE', ( #166, #147, #135, #57 ) ) ;
#113 = CIRCLE ( 'NONE', #144, 5.000000000000000900 ) ;
#114 = FILL_AREA_STYLE_COLOUR ( '', #109 ) ;
#115 = UNCERTAINTY_MEASURE_WITH_UNIT (LENGTH_MEASURE( 1.000000000000000100E-005 ), #78, 'distance_accuracy_value', 'NONE');
#116 = DIRECTION ( 'NONE',  ( 0.0000000000000000000, -1.000000000000000000, 0.0000000000000000000 ) ) ;
#117 = CARTESIAN_POINT ( 'NONE',  ( 21.50597511808246100, 18.03112609140304200, 6.123233995736768300E-016 ) ) ;
#118 = COLOUR_RGB ( '',1.000000000000000000, 1.000000000000000000, 1.000000000000000000 ) ;
#119 =( GEOMETRIC_REPRESENTATION_CONTEXT ( 3 ) GLOBAL_UNCERTAINTY_ASSIGNED_CONTEXT ( ( #83 ) ) GLOBAL_UNIT_ASSIGNED_CONTEXT ( ( #59, #134, #146 ) ) REPRESENTATION_CONTEXT ( 'NONE', 'WORKASPACE' ) );
#120 = DIRECTION ( 'NONE',  ( 1.000000000000000000, 0.0000000000000000000, 0.0000000000000000000 ) ) ;
#121 = APPLICATION_CONTEXT ( 'automotive_design' ) ;
#122 = CARTESIAN_POINT ( 'NONE',  ( 40.19423205362065900, 13.03112609140303700, 0.0000000000000000000 ) ) ;
#123 = DIRECTION ( 'NONE',  ( -1.000000000000000000, 3.159171411554934600E-016, -0.0000000000000000000 ) ) ;
#124 = EDGE_CURVE ( 'NONE', #50, #159, #152, .T. ) ;
#125 = CIRCLE ( 'NONE', #24, 16.27000000000000000 ) ;
#126 = SURFACE_STYLE_FILL_AREA ( #158 ) ;
#127 = VECTOR ( 'NONE', #2, 1000.000000000000000 ) ;
#128 = AXIS2_PLACEMENT_3D ( 'NONE', #88, #149, #33 ) ;
#129 = PRESENTATION_LAYER_ASSIGNMENT (  '', '', ( #71 ) ) ;
#130 = ORIENTED_EDGE ( 'NONE', *, *, #8, .T. ) ;
#131 = ORIENTED_EDGE ( 'NONE', *, *, #154, .F. ) ;
#132 = DIRECTION ( 'NONE',  ( 3.159171411554934600E-016, 1.000000000000000000, 0.0000000000000000000 ) ) ;
#133 = CARTESIAN_POINT ( 'NONE',  ( 21.50597511808246100, 8.031126091403040200, 0.0000000000000000000 ) ) ;
#134 =( NAMED_UNIT ( * ) PLANE_ANGLE_UNIT ( ) SI_UNIT ( $, .RADIAN. ) );
#135 = ORIENTED_EDGE ( 'NONE', *, *, #124, .T. ) ;
#136 = CARTESIAN_POINT ( 'NONE',  ( 24.71156755425234100, 13.03112609140304000, 0.0000000000000000000 ) ) ;
#137 =( NAMED_UNIT ( * ) PLANE_ANGLE_UNIT ( ) SI_UNIT ( $, .RADIAN. ) );
#138 = PRODUCT_DEFINITION_SHAPE ( 'NONE', 'NONE',  #110 ) ;
#139 = EDGE_CURVE ( 'NONE', #50, #34, #100, .T. ) ;
#140 = PRESENTATION_STYLE_ASSIGNMENT (( #4 ) ) ;
#141 = PRESENTATION_STYLE_ASSIGNMENT (( #23 ) ) ;
#142 = CARTESIAN_POINT ( 'NONE',  ( 22.42423205362066000, 13.03112609140304200, 0.0000000000000000000 ) ) ;
#143 = CYLINDRICAL_SURFACE ( 'NONE', #12, 5.000000000000000900 ) ;
#144 = AXIS2_PLACEMENT_3D ( 'NONE', #20, #5, #108 ) ;
#145 = DIRECTION ( 'NONE',  ( 4.264839522991535600E-016, 1.000000000000000000, 0.0000000000000000000 ) ) ;
#146 =( NAMED_UNIT ( * ) SI_UNIT ( $, .STERADIAN. ) SOLID_ANGLE_UNIT ( ) );
#147 = ORIENTED_EDGE ( 'NONE', *, *, #165, .T. ) ;
#148 = DIRECTION ( 'NONE',  ( 0.0000000000000000000, -1.000000000000000000, 0.0000000000000000000 ) ) ;
#149 = DIRECTION ( 'NONE',  ( 3.868869157118576300E-032, 1.224646799147353200E-016, -1.000000000000000000 ) ) ;
#150 = CIRCLE ( 'NONE', #35, 5.000000000000000900 ) ;
#151 = PRODUCT ( '120134', '120134', '', ( #7 ) ) ;
#152 = LINE ( 'NONE', #133, #67 ) ;
#153 = AXIS2_PLACEMENT_3D ( 'NONE', #157, #123, #75 ) ;
#154 = EDGE_CURVE ( 'NONE', #34, #18, #125, .T. ) ;
#155 = DIRECTION ( 'NONE',  ( 0.0000000000000000000, -1.000000000000000000, 0.0000000000000000000 ) ) ;
#156 = CARTESIAN_POINT ( 'NONE',  ( 40.19423205362065900, 13.03112609140303700, 0.0000000000000000000 ) ) ;
#157 = CARTESIAN_POINT ( 'NONE',  ( 24.71156755425234100, 13.03112609140304000, 0.0000000000000000000 ) ) ;
#158 = FILL_AREA_STYLE ('',( #76 ) ) ;
#159 = VERTEX_POINT ( 'NONE', #62 ) ;
#160 = SURFACE_SIDE_STYLE ('',( #126 ) ) ;
#161 = PRODUCT_DEFINITION_FORMATION_WITH_SPECIFIED_SOURCE ( 'ÈÎºÎ', '', #151, .NOT_KNOWN. ) ;
#162 = AXIS2_PLACEMENT_3D ( 'NONE', #156, #98, #61 ) ;
#163 = PRODUCT_RELATED_PRODUCT_CATEGORY ( 'part', '', ( #151 ) ) ;
#164 = ORIENTED_EDGE ( 'NONE', *, *, #154, .T. ) ;
#165 = EDGE_CURVE ( 'NONE', #34, #50, #111, .T. ) ;
#166 = ORIENTED_EDGE ( 'NONE', *, *, #51, .F. ) ;
ENDSEC;
END-ISO-10303-21;
