ISO-10303-21;
HEADER;
FILE_DESCRIPTION (( 'STEP AP214' ),
    '1' );
FILE_NAME ('120151.STEP',
    '2019-06-20T05:42:38',
    ( '' ),
    ( '' ),
    'SwSTEP 2.0',
    'SolidWorks 2016',
    '' );
FILE_SCHEMA (( 'AUTOMOTIVE_DESIGN' ));
ENDSEC;

DATA;
#1 = FILL_AREA_STYLE_COLOUR ( '', #61 ) ;
#2 =( NAMED_UNIT ( * ) PLANE_ANGLE_UNIT ( ) SI_UNIT ( $, .RADIAN. ) );
#3 = DIRECTION ( 'NONE',  ( 1.000000000000000000, 0.0000000000000000000, 0.0000000000000000000 ) ) ;
#4 = MANIFOLD_SOLID_BREP ( 'Ðý×ª1', #115 ) ;
#5 = CARTESIAN_POINT ( 'NONE',  ( 57.35819015802110200, 20.07872591329309800, 0.0000000000000000000 ) ) ;
#6 = DIRECTION ( 'NONE',  ( -5.551115123125782700E-016, -1.000000000000000000, 0.0000000000000000000 ) ) ;
#7 = AXIS2_PLACEMENT_3D ( 'NONE', #152, #80, #6 ) ;
#8 = DIRECTION ( 'NONE',  ( -1.000000000000000000, 4.853228644174421400E-016, -0.0000000000000000000 ) ) ;
#9 = ORIENTED_EDGE ( 'NONE', *, *, #30, .F. ) ;
#10 = AXIS2_PLACEMENT_3D ( 'NONE', #116, #42, #137 ) ;
#11 = EDGE_LOOP ( 'NONE', ( #63, #128, #50 ) ) ;
#12 = EDGE_LOOP ( 'NONE', ( #122, #136 ) ) ;
#13 = AXIS2_PLACEMENT_3D ( 'NONE', #94, #117, #130 ) ;
#14 = APPLICATION_CONTEXT ( 'automotive_design' ) ;
#15 = DIRECTION ( 'NONE',  ( -1.000000000000000000, 4.853228644174421400E-016, -0.0000000000000000000 ) ) ;
#16 = FACE_OUTER_BOUND ( 'NONE', #119, .T. ) ;
#17 = CARTESIAN_POINT ( 'NONE',  ( 55.00739462442118800, 45.07872591329309100, 1.530808498934191500E-015 ) ) ;
#18 = FILL_AREA_STYLE ('',( #129 ) ) ;
#19 = DIRECTION ( 'NONE',  ( 0.0000000000000000000, -1.000000000000000000, -1.224646799147353200E-016 ) ) ;
#20 = ORIENTED_EDGE ( 'NONE', *, *, #148, .F. ) ;
#21 = CARTESIAN_POINT ( 'NONE',  ( 57.35819015802111000, 32.57872591329309800, 0.0000000000000000000 ) ) ;
#22 = PRODUCT_DEFINITION_FORMATION_WITH_SPECIFIED_SOURCE ( 'ÈÎºÎ', '', #150, .NOT_KNOWN. ) ;
#23 = PRESENTATION_STYLE_ASSIGNMENT (( #98 ) ) ;
#24 = CIRCLE ( 'NONE', #163, 20.65000000000000200 ) ;
#25 = TOROIDAL_SURFACE ( 'NONE', #13, -4.880550423699409600E-005, 20.65000000000000200 ) ;
#26 = AXIS2_PLACEMENT_3D ( 'NONE', #139, #15, #31 ) ;
#27 = ORIENTED_EDGE ( 'NONE', *, *, #40, .T. ) ;
#28 = FACE_OUTER_BOUND ( 'NONE', #11, .T. ) ;
#29 =( NAMED_UNIT ( * ) PLANE_ANGLE_UNIT ( ) SI_UNIT ( $, .RADIAN. ) );
#30 = EDGE_CURVE ( 'NONE', #88, #52, #76, .T. ) ;
#31 = DIRECTION ( 'NONE',  ( 0.0000000000000000000, -1.000000000000000000, 0.0000000000000000000 ) ) ;
#32 = UNCERTAINTY_MEASURE_WITH_UNIT (LENGTH_MEASURE( 1.000000000000000100E-005 ), #79, 'distance_accuracy_value', 'NONE');
#33 = APPLICATION_PROTOCOL_DEFINITION ( 'draft international standard', 'automotive_design', 1998, #138 ) ;
#34 = CARTESIAN_POINT ( 'NONE',  ( 0.0000000000000000000, 0.0000000000000000000, 0.0000000000000000000 ) ) ;
#35 = ORIENTED_EDGE ( 'NONE', *, *, #145, .T. ) ;
#36 = COLOUR_RGB ( '',1.000000000000000000, 1.000000000000000000, 1.000000000000000000 ) ;
#37 = TOROIDAL_SURFACE ( 'NONE', #66, -4.880550423699409600E-005, 20.65000000000000200 ) ;
#38 = EDGE_LOOP ( 'NONE', ( #72, #143, #9 ) ) ;
#39 = SURFACE_SIDE_STYLE ('',( #96 ) ) ;
#40 = EDGE_CURVE ( 'NONE', #88, #43, #135, .T. ) ;
#41 =( LENGTH_UNIT ( ) NAMED_UNIT ( * ) SI_UNIT ( .MILLI., .METRE. ) );
#42 = DIRECTION ( 'NONE',  ( -1.000000000000000000, 4.853228644174421400E-016, -0.0000000000000000000 ) ) ;
#43 = VERTEX_POINT ( 'NONE', #56 ) ;
#44 = CARTESIAN_POINT ( 'NONE',  ( 80.00818964061232900, 32.57867710778884900, -5.976950454460740400E-021 ) ) ;
#45 = CARTESIAN_POINT ( 'NONE',  ( 57.35819015802111000, 32.57872591329309800, 0.0000000000000000000 ) ) ;
#46 = CARTESIAN_POINT ( 'NONE',  ( 57.35819015802111700, 45.07872591329309100, 1.530808498934191900E-015 ) ) ;
#47 = LINE ( 'NONE', #113, #121 ) ;
#48 = PRODUCT_RELATED_PRODUCT_CATEGORY ( 'part', '', ( #150 ) ) ;
#49 = AXIS2_PLACEMENT_3D ( 'NONE', #95, #57, #141 ) ;
#50 = ORIENTED_EDGE ( 'NONE', *, *, #30, .T. ) ;
#51 = AXIS2_PLACEMENT_3D ( 'NONE', #21, #71, #92 ) ;
#52 = VERTEX_POINT ( 'NONE', #77 ) ;
#53 = APPLICATION_PROTOCOL_DEFINITION ( 'draft international standard', 'automotive_design', 1998, #14 ) ;
#54 = SURFACE_STYLE_USAGE ( .BOTH. , #99 ) ;
#55 = EDGE_CURVE ( 'NONE', #43, #88, #157, .T. ) ;
#56 = CARTESIAN_POINT ( 'NONE',  ( 63.57130186159493200, 45.07872591329309100, 1.530808498934191700E-015 ) ) ;
#57 = DIRECTION ( 'NONE',  ( 1.000000000000000000, -4.853228644174421400E-016, 0.0000000000000000000 ) ) ;
#58 = EDGE_LOOP ( 'NONE', ( #27, #35, #154, #107 ) ) ;
#59 = FACE_OUTER_BOUND ( 'NONE', #58, .T. ) ;
#60 = CIRCLE ( 'NONE', #132, 12.49999999999999600 ) ;
#61 = COLOUR_RGB ( '',1.000000000000000000, 1.000000000000000000, 1.000000000000000000 ) ;
#62 =( GEOMETRIC_REPRESENTATION_CONTEXT ( 3 ) GLOBAL_UNCERTAINTY_ASSIGNED_CONTEXT ( ( #83 ) ) GLOBAL_UNIT_ASSIGNED_CONTEXT ( ( #41, #29, #165 ) ) REPRESENTATION_CONTEXT ( 'NONE', 'WORKASPACE' ) );
#63 = ORIENTED_EDGE ( 'NONE', *, *, #158, .F. ) ;
#64 = STYLED_ITEM ( 'NONE', ( #23 ), #4 ) ;
#65 = ORIENTED_EDGE ( 'NONE', *, *, #55, .T. ) ;
#66 = AXIS2_PLACEMENT_3D ( 'NONE', #153, #142, #85 ) ;
#67 =( NAMED_UNIT ( * ) PLANE_ANGLE_UNIT ( ) SI_UNIT ( $, .RADIAN. ) );
#68 = DIRECTION ( 'NONE',  ( -1.000000000000000000, 4.853228644174421400E-016, -0.0000000000000000000 ) ) ;
#69 = AXIS2_PLACEMENT_3D ( 'NONE', #70, #8, #105 ) ;
#70 = CARTESIAN_POINT ( 'NONE',  ( 55.00739462442118100, 32.57872591329309800, 0.0000000000000000000 ) ) ;
#71 = DIRECTION ( 'NONE',  ( -1.000000000000000000, 4.853228644174421400E-016, -0.0000000000000000000 ) ) ;
#72 = ORIENTED_EDGE ( 'NONE', *, *, #55, .F. ) ;
#73 = FACE_OUTER_BOUND ( 'NONE', #12, .T. ) ;
#74 = EDGE_CURVE ( 'NONE', #88, #162, #47, .T. ) ;
#75 =( GEOMETRIC_REPRESENTATION_CONTEXT ( 3 ) GLOBAL_UNCERTAINTY_ASSIGNED_CONTEXT ( ( #32 ) ) GLOBAL_UNIT_ASSIGNED_CONTEXT ( ( #79, #67, #90 ) ) REPRESENTATION_CONTEXT ( 'NONE', 'WORKASPACE' ) );
#76 = CIRCLE ( 'NONE', #87, 20.65000000000000200 ) ;
#77 = CARTESIAN_POINT ( 'NONE',  ( 59.35818964067000500, 32.57872591329309100, 0.0000000000000000000 ) ) ;
#78 = ADVANCED_FACE ( 'NONE', ( #59 ), #149, .T. ) ;
#79 =( LENGTH_UNIT ( ) NAMED_UNIT ( * ) SI_UNIT ( .MILLI., .METRE. ) );
#80 = DIRECTION ( 'NONE',  ( -1.000000000000000000, 4.853228644174421400E-016, -0.0000000000000000000 ) ) ;
#81 =( LENGTH_UNIT ( ) NAMED_UNIT ( * ) SI_UNIT ( .MILLI., .METRE. ) );
#82 = DIRECTION ( 'NONE',  ( -5.551115123125784700E-016, -1.000000000000000000, 0.0000000000000000000 ) ) ;
#83 = UNCERTAINTY_MEASURE_WITH_UNIT (LENGTH_MEASURE( 1.000000000000000100E-005 ), #41, 'distance_accuracy_value', 'NONE');
#84 = DIRECTION ( 'NONE',  ( 0.0000000000000000000, 0.0000000000000000000, 1.000000000000000000 ) ) ;
#85 = DIRECTION ( 'NONE',  ( -4.853228644174421400E-016, -1.000000000000000000, 0.0000000000000000000 ) ) ;
#86 = ORIENTED_EDGE ( 'NONE', *, *, #74, .T. ) ;
#87 = AXIS2_PLACEMENT_3D ( 'NONE', #100, #125, #114 ) ;
#88 = VERTEX_POINT ( 'NONE', #131 ) ;
#89 = EDGE_CURVE ( 'NONE', #162, #140, #133, .T. ) ;
#90 =( NAMED_UNIT ( * ) SI_UNIT ( $, .STERADIAN. ) SOLID_ANGLE_UNIT ( ) );
#91 = ADVANCED_FACE ( 'NONE', ( #109 ), #25, .F. ) ;
#92 = DIRECTION ( 'NONE',  ( -5.551115123125784700E-016, -1.000000000000000000, 0.0000000000000000000 ) ) ;
#93 = LINE ( 'NONE', #17, #159 ) ;
#94 = CARTESIAN_POINT ( 'NONE',  ( 80.00818964061232900, 32.57872591329308400, 0.0000000000000000000 ) ) ;
#95 = CARTESIAN_POINT ( 'NONE',  ( 57.35819015802111700, 32.57872591329309100, 0.0000000000000000000 ) ) ;
#96 = SURFACE_STYLE_FILL_AREA ( #111 ) ;
#97 = PRESENTATION_LAYER_ASSIGNMENT (  '', '', ( #64 ) ) ;
#98 = SURFACE_STYLE_USAGE ( .BOTH. , #39 ) ;
#99 = SURFACE_SIDE_STYLE ('',( #156 ) ) ;
#100 = CARTESIAN_POINT ( 'NONE',  ( 80.00818964061232900, 32.57877471879732000, 0.0000000000000000000 ) ) ;
#101 = ADVANCED_FACE ( 'NONE', ( #16 ), #161, .T. ) ;
#102 = DIRECTION ( 'NONE',  ( -1.000000000000000000, 4.853228644174421400E-016, -0.0000000000000000000 ) ) ;
#103 = PRODUCT_CONTEXT ( 'NONE', #14, 'mechanical' ) ;
#104 =( NAMED_UNIT ( * ) SI_UNIT ( $, .STERADIAN. ) SOLID_ANGLE_UNIT ( ) );
#105 = DIRECTION ( 'NONE',  ( -5.551115123125782700E-016, -1.000000000000000000, 0.0000000000000000000 ) ) ;
#106 = PRODUCT_DEFINITION ( 'Î´Öª', '', #22, #155 ) ;
#107 = ORIENTED_EDGE ( 'NONE', *, *, #74, .F. ) ;
#108 = UNCERTAINTY_MEASURE_WITH_UNIT (LENGTH_MEASURE( 1.000000000000000100E-005 ), #81, 'distance_accuracy_value', 'NONE');
#109 = FACE_OUTER_BOUND ( 'NONE', #38, .T. ) ;
#110 = MECHANICAL_DESIGN_GEOMETRIC_PRESENTATION_REPRESENTATION (  '', ( #64 ), #62 ) ;
#111 = FILL_AREA_STYLE ('',( #1 ) ) ;
#112 = ADVANCED_FACE ( 'NONE', ( #73 ), #144, .F. ) ;
#113 = CARTESIAN_POINT ( 'NONE',  ( 55.00739462442117400, 20.07872591329309500, 0.0000000000000000000 ) ) ;
#114 = DIRECTION ( 'NONE',  ( -1.000000000000000000, 0.0000000000000000000, 0.0000000000000000000 ) ) ;
#115 = CLOSED_SHELL ( 'NONE', ( #78, #91, #164, #101, #112 ) ) ;
#116 = CARTESIAN_POINT ( 'NONE',  ( 63.57130186159491800, 32.57872591329309100, 0.0000000000000000000 ) ) ;
#117 = DIRECTION ( 'NONE',  ( -1.000000000000000000, 4.853228644174421400E-016, -0.0000000000000000000 ) ) ;
#118 = DIRECTION ( 'NONE',  ( -1.000000000000000000, 4.853228644174421400E-016, -0.0000000000000000000 ) ) ;
#119 = EDGE_LOOP ( 'NONE', ( #124, #65, #86, #20 ) ) ;
#120 =( GEOMETRIC_REPRESENTATION_CONTEXT ( 3 ) GLOBAL_UNCERTAINTY_ASSIGNED_CONTEXT ( ( #108 ) ) GLOBAL_UNIT_ASSIGNED_CONTEXT ( ( #81, #2, #104 ) ) REPRESENTATION_CONTEXT ( 'NONE', 'WORKASPACE' ) );
#121 = VECTOR ( 'NONE', #68, 1000.000000000000000 ) ;
#122 = ORIENTED_EDGE ( 'NONE', *, *, #89, .T. ) ;
#123 = SHAPE_DEFINITION_REPRESENTATION ( #160, #151 ) ;
#124 = ORIENTED_EDGE ( 'NONE', *, *, #145, .F. ) ;
#125 = DIRECTION ( 'NONE',  ( 0.0000000000000000000, -0.0000000000000000000, -1.000000000000000000 ) ) ;
#126 = PRESENTATION_LAYER_ASSIGNMENT (  '', '', ( #146 ) ) ;
#127 = DIRECTION ( 'NONE',  ( -5.943490924618453600E-032, -1.224646799147353200E-016, 1.000000000000000000 ) ) ;
#128 = ORIENTED_EDGE ( 'NONE', *, *, #40, .F. ) ;
#129 = FILL_AREA_STYLE_COLOUR ( '', #36 ) ;
#130 = DIRECTION ( 'NONE',  ( -4.853228644174421400E-016, -1.000000000000000000, 0.0000000000000000000 ) ) ;
#131 = CARTESIAN_POINT ( 'NONE',  ( 63.57130186159491800, 20.07872591329308400, 0.0000000000000000000 ) ) ;
#132 = AXIS2_PLACEMENT_3D ( 'NONE', #45, #102, #82 ) ;
#133 = CIRCLE ( 'NONE', #51, 12.49999999999999600 ) ;
#134 = PRESENTATION_STYLE_ASSIGNMENT (( #54 ) ) ;
#135 = CIRCLE ( 'NONE', #10, 12.50000000000000000 ) ;
#136 = ORIENTED_EDGE ( 'NONE', *, *, #148, .T. ) ;
#137 = DIRECTION ( 'NONE',  ( 0.0000000000000000000, -1.000000000000000000, 0.0000000000000000000 ) ) ;
#138 = APPLICATION_CONTEXT ( 'automotive_design' ) ;
#139 = CARTESIAN_POINT ( 'NONE',  ( 63.57130186159491800, 32.57872591329309100, 0.0000000000000000000 ) ) ;
#140 = VERTEX_POINT ( 'NONE', #46 ) ;
#141 = DIRECTION ( 'NONE',  ( 4.853228644174421400E-016, 1.000000000000000000, 0.0000000000000000000 ) ) ;
#142 = DIRECTION ( 'NONE',  ( -1.000000000000000000, 4.853228644174421400E-016, -0.0000000000000000000 ) ) ;
#143 = ORIENTED_EDGE ( 'NONE', *, *, #158, .T. ) ;
#144 = PLANE ( 'NONE',  #49 ) ;
#145 = EDGE_CURVE ( 'NONE', #43, #140, #93, .T. ) ;
#146 = STYLED_ITEM ( 'NONE', ( #134 ), #151 ) ;
#147 = AXIS2_PLACEMENT_3D ( 'NONE', #34, #84, #3 ) ;
#148 = EDGE_CURVE ( 'NONE', #140, #162, #60, .T. ) ;
#149 = CYLINDRICAL_SURFACE ( 'NONE', #7, 12.50000000000000000 ) ;
#150 = PRODUCT ( '120151', '120151', '', ( #103 ) ) ;
#151 = ADVANCED_BREP_SHAPE_REPRESENTATION ( '120151', ( #4, #147 ), #120 ) ;
#152 = CARTESIAN_POINT ( 'NONE',  ( 55.00739462442118100, 32.57872591329309800, 0.0000000000000000000 ) ) ;
#153 = CARTESIAN_POINT ( 'NONE',  ( 80.00818964061232900, 32.57872591329308400, 0.0000000000000000000 ) ) ;
#154 = ORIENTED_EDGE ( 'NONE', *, *, #89, .F. ) ;
#155 = PRODUCT_DEFINITION_CONTEXT ( 'detailed design', #138, 'design' ) ;
#156 = SURFACE_STYLE_FILL_AREA ( #18 ) ;
#157 = CIRCLE ( 'NONE', #26, 12.50000000000000000 ) ;
#158 = EDGE_CURVE ( 'NONE', #43, #52, #24, .T. ) ;
#159 = VECTOR ( 'NONE', #118, 1000.000000000000000 ) ;
#160 = PRODUCT_DEFINITION_SHAPE ( 'NONE', 'NONE',  #106 ) ;
#161 = CYLINDRICAL_SURFACE ( 'NONE', #69, 12.50000000000000000 ) ;
#162 = VERTEX_POINT ( 'NONE', #5 ) ;
#163 = AXIS2_PLACEMENT_3D ( 'NONE', #44, #127, #19 ) ;
#164 = ADVANCED_FACE ( 'NONE', ( #28 ), #37, .F. ) ;
#165 =( NAMED_UNIT ( * ) SI_UNIT ( $, .STERADIAN. ) SOLID_ANGLE_UNIT ( ) );
#166 = MECHANICAL_DESIGN_GEOMETRIC_PRESENTATION_REPRESENTATION (  '', ( #146 ), #75 ) ;
ENDSEC;
END-ISO-10303-21;
