ISO-10303-21;
HEADER;
FILE_DESCRIPTION (( 'STEP AP214' ),
    '1' );
FILE_NAME ('120132.STEP',
    '2019-06-19T06:03:20',
    ( '' ),
    ( '' ),
    'SwSTEP 2.0',
    'SolidWorks 2016',
    '' );
FILE_SCHEMA (( 'AUTOMOTIVE_DESIGN' ));
ENDSEC;

DATA;
#1 = EDGE_CURVE ( 'NONE', #64, #104, #86, .T. ) ;
#2 =( NAMED_UNIT ( * ) SI_UNIT ( $, .STERADIAN. ) SOLID_ANGLE_UNIT ( ) );
#3 = ADVANCED_FACE ( 'NONE', ( #12 ), #93, .F. ) ;
#4 = VERTEX_POINT ( 'NONE', #110 ) ;
#5 = AXIS2_PLACEMENT_3D ( 'NONE', #144, #139, #16 ) ;
#6 =( NAMED_UNIT ( * ) SI_UNIT ( $, .STERADIAN. ) SOLID_ANGLE_UNIT ( ) );
#7 = DIRECTION ( 'NONE',  ( -1.000000000000000000, 3.159171411554934600E-016, -0.0000000000000000000 ) ) ;
#8 = DIRECTION ( 'NONE',  ( 0.0000000000000000000, 0.0000000000000000000, 1.000000000000000000 ) ) ;
#9 = CARTESIAN_POINT ( 'NONE',  ( 25.21493451454163900, 8.031126091403036700, -6.123233995736768300E-016 ) ) ;
#10 = EDGE_CURVE ( 'NONE', #163, #4, #62, .T. ) ;
#11 = FACE_OUTER_BOUND ( 'NONE', #135, .T. ) ;
#12 = FACE_OUTER_BOUND ( 'NONE', #37, .T. ) ;
#13 = FACE_OUTER_BOUND ( 'NONE', #29, .T. ) ;
#14 = DIRECTION ( 'NONE',  ( -1.000000000000000000, 3.159171411554934600E-016, -0.0000000000000000000 ) ) ;
#15 = DIRECTION ( 'NONE',  ( 0.0000000000000000000, -1.000000000000000000, 0.0000000000000000000 ) ) ;
#16 = DIRECTION ( 'NONE',  ( 0.0000000000000000000, -1.000000000000000000, 0.0000000000000000000 ) ) ;
#17 = EDGE_LOOP ( 'NONE', ( #80, #113, #88, #40 ) ) ;
#18 = AXIS2_PLACEMENT_3D ( 'NONE', #32, #94, #95 ) ;
#19 = EDGE_CURVE ( 'NONE', #163, #104, #52, .T. ) ;
#20 = DIRECTION ( 'NONE',  ( 1.000000000000000000, 0.0000000000000000000, 0.0000000000000000000 ) ) ;
#21 = CARTESIAN_POINT ( 'NONE',  ( 0.0000000000000000000, 0.0000000000000000000, 0.0000000000000000000 ) ) ;
#22 = SURFACE_SIDE_STYLE ('',( #67 ) ) ;
#23 = AXIS2_PLACEMENT_3D ( 'NONE', #121, #7, #148 ) ;
#24 = ORIENTED_EDGE ( 'NONE', *, *, #81, .T. ) ;
#25 = PRESENTATION_STYLE_ASSIGNMENT (( #112 ) ) ;
#26 = CIRCLE ( 'NONE', #5, 5.000000000000000900 ) ;
#27 = VECTOR ( 'NONE', #136, 1000.000000000000000 ) ;
#28 =( GEOMETRIC_REPRESENTATION_CONTEXT ( 3 ) GLOBAL_UNCERTAINTY_ASSIGNED_CONTEXT ( ( #101 ) ) GLOBAL_UNIT_ASSIGNED_CONTEXT ( ( #109, #30, #2 ) ) REPRESENTATION_CONTEXT ( 'NONE', 'WORKASPACE' ) );
#29 = EDGE_LOOP ( 'NONE', ( #165, #117 ) ) ;
#30 =( NAMED_UNIT ( * ) PLANE_ANGLE_UNIT ( ) SI_UNIT ( $, .RADIAN. ) );
#31 = APPLICATION_CONTEXT ( 'automotive_design' ) ;
#32 = CARTESIAN_POINT ( 'NONE',  ( 21.50597511808246100, 13.03112609140304200, 0.0000000000000000000 ) ) ;
#33 = PRODUCT ( '120132', '120132', '', ( #76 ) ) ;
#34 = DIRECTION ( 'NONE',  ( 0.0000000000000000000, 1.000000000000000000, 0.0000000000000000000 ) ) ;
#35 = ORIENTED_EDGE ( 'NONE', *, *, #19, .F. ) ;
#36 = EDGE_CURVE ( 'NONE', #163, #119, #54, .T. ) ;
#37 = EDGE_LOOP ( 'NONE', ( #154, #150, #24 ) ) ;
#38 = AXIS2_PLACEMENT_3D ( 'NONE', #114, #87, #132 ) ;
#39 =( GEOMETRIC_REPRESENTATION_CONTEXT ( 3 ) GLOBAL_UNCERTAINTY_ASSIGNED_CONTEXT ( ( #59 ) ) GLOBAL_UNIT_ASSIGNED_CONTEXT ( ( #89, #131, #6 ) ) REPRESENTATION_CONTEXT ( 'NONE', 'WORKASPACE' ) );
#40 = ORIENTED_EDGE ( 'NONE', *, *, #1, .F. ) ;
#41 = UNCERTAINTY_MEASURE_WITH_UNIT (LENGTH_MEASURE( 1.000000000000000100E-005 ), #149, 'distance_accuracy_value', 'NONE');
#42 = ORIENTED_EDGE ( 'NONE', *, *, #72, .T. ) ;
#43 = CARTESIAN_POINT ( 'NONE',  ( 34.25423205362066200, 13.03112609140303700, 0.0000000000000000000 ) ) ;
#44 = CARTESIAN_POINT ( 'NONE',  ( 21.50597511808246100, 8.031126091403040200, 0.0000000000000000000 ) ) ;
#45 = EDGE_CURVE ( 'NONE', #104, #64, #26, .T. ) ;
#46 = DIRECTION ( 'NONE',  ( 1.000000000000000000, -3.159171411554934600E-016, 0.0000000000000000000 ) ) ;
#47 = CARTESIAN_POINT ( 'NONE',  ( 34.25423205362066200, 13.03112609140303700, 0.0000000000000000000 ) ) ;
#48 = MANIFOLD_SOLID_BREP ( 'Ðý×ª1', #145 ) ;
#49 = DIRECTION ( 'NONE',  ( 0.0000000000000000000, 0.0000000000000000000, 1.000000000000000000 ) ) ;
#50 = FILL_AREA_STYLE_COLOUR ( '', #102 ) ;
#51 =( GEOMETRIC_REPRESENTATION_CONTEXT ( 3 ) GLOBAL_UNCERTAINTY_ASSIGNED_CONTEXT ( ( #41 ) ) GLOBAL_UNIT_ASSIGNED_CONTEXT ( ( #149, #122, #98 ) ) REPRESENTATION_CONTEXT ( 'NONE', 'WORKASPACE' ) );
#52 = LINE ( 'NONE', #44, #155 ) ;
#53 = ORIENTED_EDGE ( 'NONE', *, *, #81, .F. ) ;
#54 = CIRCLE ( 'NONE', #152, 10.32999999999999700 ) ;
#55 = CARTESIAN_POINT ( 'NONE',  ( 34.25423205362066200, 13.03112609140303700, 0.0000000000000000000 ) ) ;
#56 = ADVANCED_FACE ( 'NONE', ( #13 ), #71, .F. ) ;
#57 = CARTESIAN_POINT ( 'NONE',  ( 21.50597511808246100, 18.03112609140304200, 6.123233995736768300E-016 ) ) ;
#58 = ADVANCED_FACE ( 'NONE', ( #115 ), #66, .T. ) ;
#59 = UNCERTAINTY_MEASURE_WITH_UNIT (LENGTH_MEASURE( 1.000000000000000100E-005 ), #89, 'distance_accuracy_value', 'NONE');
#60 = APPLICATION_PROTOCOL_DEFINITION ( 'draft international standard', 'automotive_design', 1998, #161 ) ;
#61 = APPLICATION_PROTOCOL_DEFINITION ( 'draft international standard', 'automotive_design', 1998, #31 ) ;
#62 = CIRCLE ( 'NONE', #77, 5.000000000000002700 ) ;
#63 = CIRCLE ( 'NONE', #23, 5.000000000000002700 ) ;
#64 = VERTEX_POINT ( 'NONE', #73 ) ;
#65 = AXIS2_PLACEMENT_3D ( 'NONE', #55, #157, #85 ) ;
#66 = CYLINDRICAL_SURFACE ( 'NONE', #38, 5.000000000000000900 ) ;
#67 = SURFACE_STYLE_FILL_AREA ( #147 ) ;
#68 = CARTESIAN_POINT ( 'NONE',  ( 22.42423205362066000, 13.03112609140304200, 0.0000000000000000000 ) ) ;
#69 = FILL_AREA_STYLE ('',( #129 ) ) ;
#70 = ORIENTED_EDGE ( 'NONE', *, *, #36, .T. ) ;
#71 = PLANE ( 'NONE',  #83 ) ;
#72 = EDGE_CURVE ( 'NONE', #4, #64, #96, .T. ) ;
#73 = CARTESIAN_POINT ( 'NONE',  ( 22.42423205362066000, 18.03112609140304200, 6.123233995736768300E-016 ) ) ;
#74 = FACE_OUTER_BOUND ( 'NONE', #17, .T. ) ;
#75 = DIRECTION ( 'NONE',  ( 0.0000000000000000000, 0.0000000000000000000, -1.000000000000000000 ) ) ;
#76 = PRODUCT_CONTEXT ( 'NONE', #161, 'mechanical' ) ;
#77 = AXIS2_PLACEMENT_3D ( 'NONE', #107, #108, #143 ) ;
#78 = STYLED_ITEM ( 'NONE', ( #25 ), #105 ) ;
#79 = EDGE_CURVE ( 'NONE', #4, #163, #63, .T. ) ;
#80 = ORIENTED_EDGE ( 'NONE', *, *, #72, .F. ) ;
#81 = EDGE_CURVE ( 'NONE', #4, #119, #164, .T. ) ;
#82 = ADVANCED_FACE ( 'NONE', ( #11 ), #92, .F. ) ;
#83 = AXIS2_PLACEMENT_3D ( 'NONE', #68, #46, #120 ) ;
#84 = DIRECTION ( 'NONE',  ( 0.0000000000000000000, 1.000000000000000000, 1.224646799147353500E-016 ) ) ;
#85 = DIRECTION ( 'NONE',  ( 0.0000000000000000000, 1.000000000000000000, 0.0000000000000000000 ) ) ;
#86 = CIRCLE ( 'NONE', #90, 5.000000000000000900 ) ;
#87 = DIRECTION ( 'NONE',  ( -1.000000000000000000, 3.159171411554934600E-016, -0.0000000000000000000 ) ) ;
#88 = ORIENTED_EDGE ( 'NONE', *, *, #19, .T. ) ;
#89 =( LENGTH_UNIT ( ) NAMED_UNIT ( * ) SI_UNIT ( .MILLI., .METRE. ) );
#90 = AXIS2_PLACEMENT_3D ( 'NONE', #128, #142, #15 ) ;
#91 = SURFACE_STYLE_FILL_AREA ( #69 ) ;
#92 = SPHERICAL_SURFACE ( 'NONE', #160, 10.32999999999999800 ) ;
#93 = SPHERICAL_SURFACE ( 'NONE', #65, 10.32999999999999800 ) ;
#94 = DIRECTION ( 'NONE',  ( -1.000000000000000000, 3.159171411554934600E-016, -0.0000000000000000000 ) ) ;
#95 = DIRECTION ( 'NONE',  ( 0.0000000000000000000, -1.000000000000000000, 0.0000000000000000000 ) ) ;
#96 = LINE ( 'NONE', #57, #27 ) ;
#97 = CARTESIAN_POINT ( 'NONE',  ( 22.42423205362066000, 8.031126091403040200, 0.0000000000000000000 ) ) ;
#98 =( NAMED_UNIT ( * ) SI_UNIT ( $, .STERADIAN. ) SOLID_ANGLE_UNIT ( ) );
#99 = CARTESIAN_POINT ( 'NONE',  ( 34.25423205362066200, 13.03112609140303700, 0.0000000000000000000 ) ) ;
#100 = AXIS2_PLACEMENT_3D ( 'NONE', #21, #8, #20 ) ;
#101 = UNCERTAINTY_MEASURE_WITH_UNIT (LENGTH_MEASURE( 1.000000000000000100E-005 ), #109, 'distance_accuracy_value', 'NONE');
#102 = COLOUR_RGB ( '',1.000000000000000000, 1.000000000000000000, 1.000000000000000000 ) ;
#103 = EDGE_LOOP ( 'NONE', ( #127, #42, #111, #35 ) ) ;
#104 = VERTEX_POINT ( 'NONE', #97 ) ;
#105 = ADVANCED_BREP_SHAPE_REPRESENTATION ( '120132', ( #48, #100 ), #39 ) ;
#106 = PRODUCT_DEFINITION_CONTEXT ( 'detailed design', #31, 'design' ) ;
#107 = CARTESIAN_POINT ( 'NONE',  ( 25.21493451454163900, 13.03112609140304000, 0.0000000000000000000 ) ) ;
#108 = DIRECTION ( 'NONE',  ( -1.000000000000000000, 3.159171411554934600E-016, -0.0000000000000000000 ) ) ;
#109 =( LENGTH_UNIT ( ) NAMED_UNIT ( * ) SI_UNIT ( .MILLI., .METRE. ) );
#110 = CARTESIAN_POINT ( 'NONE',  ( 25.21493451454164300, 18.03112609140304200, 0.0000000000000000000 ) ) ;
#111 = ORIENTED_EDGE ( 'NONE', *, *, #45, .F. ) ;
#112 = SURFACE_STYLE_USAGE ( .BOTH. , #22 ) ;
#113 = ORIENTED_EDGE ( 'NONE', *, *, #79, .T. ) ;
#114 = CARTESIAN_POINT ( 'NONE',  ( 21.50597511808246100, 13.03112609140304200, 0.0000000000000000000 ) ) ;
#115 = FACE_OUTER_BOUND ( 'NONE', #103, .T. ) ;
#116 = ORIENTED_EDGE ( 'NONE', *, *, #10, .F. ) ;
#117 = ORIENTED_EDGE ( 'NONE', *, *, #1, .T. ) ;
#118 = SHAPE_DEFINITION_REPRESENTATION ( #153, #105 ) ;
#119 = VERTEX_POINT ( 'NONE', #133 ) ;
#120 = DIRECTION ( 'NONE',  ( 3.159171411554934600E-016, 1.000000000000000000, 0.0000000000000000000 ) ) ;
#121 = CARTESIAN_POINT ( 'NONE',  ( 25.21493451454163900, 13.03112609140304000, 0.0000000000000000000 ) ) ;
#122 =( NAMED_UNIT ( * ) PLANE_ANGLE_UNIT ( ) SI_UNIT ( $, .RADIAN. ) );
#123 = COLOUR_RGB ( '',1.000000000000000000, 1.000000000000000000, 1.000000000000000000 ) ;
#124 = PRODUCT_DEFINITION ( 'Î´Öª', '', #151, #106 ) ;
#125 = PRESENTATION_LAYER_ASSIGNMENT (  '', '', ( #134 ) ) ;
#126 = PRODUCT_RELATED_PRODUCT_CATEGORY ( 'part', '', ( #33 ) ) ;
#127 = ORIENTED_EDGE ( 'NONE', *, *, #10, .T. ) ;
#128 = CARTESIAN_POINT ( 'NONE',  ( 22.42423205362066000, 13.03112609140304200, 0.0000000000000000000 ) ) ;
#129 = FILL_AREA_STYLE_COLOUR ( '', #123 ) ;
#130 = SURFACE_STYLE_USAGE ( .BOTH. , #158 ) ;
#131 =( NAMED_UNIT ( * ) PLANE_ANGLE_UNIT ( ) SI_UNIT ( $, .RADIAN. ) );
#132 = DIRECTION ( 'NONE',  ( 0.0000000000000000000, -1.000000000000000000, 0.0000000000000000000 ) ) ;
#133 = CARTESIAN_POINT ( 'NONE',  ( 23.92423205362066000, 13.03112609140304000, 0.0000000000000000000 ) ) ;
#134 = STYLED_ITEM ( 'NONE', ( #140 ), #48 ) ;
#135 = EDGE_LOOP ( 'NONE', ( #116, #70, #53 ) ) ;
#136 = DIRECTION ( 'NONE',  ( -1.000000000000000000, 3.159171411554934600E-016, -0.0000000000000000000 ) ) ;
#137 = CYLINDRICAL_SURFACE ( 'NONE', #18, 5.000000000000000900 ) ;
#138 = PRESENTATION_LAYER_ASSIGNMENT (  '', '', ( #78 ) ) ;
#139 = DIRECTION ( 'NONE',  ( -1.000000000000000000, 3.159171411554934600E-016, -0.0000000000000000000 ) ) ;
#140 = PRESENTATION_STYLE_ASSIGNMENT (( #130 ) ) ;
#141 = MECHANICAL_DESIGN_GEOMETRIC_PRESENTATION_REPRESENTATION (  '', ( #134 ), #28 ) ;
#142 = DIRECTION ( 'NONE',  ( -1.000000000000000000, 3.159171411554934600E-016, -0.0000000000000000000 ) ) ;
#143 = DIRECTION ( 'NONE',  ( 0.0000000000000000000, -1.000000000000000000, 0.0000000000000000000 ) ) ;
#144 = CARTESIAN_POINT ( 'NONE',  ( 22.42423205362066000, 13.03112609140304200, 0.0000000000000000000 ) ) ;
#145 = CLOSED_SHELL ( 'NONE', ( #58, #82, #3, #156, #56 ) ) ;
#146 = DIRECTION ( 'NONE',  ( 3.868869157118576300E-032, 1.224646799147353200E-016, -1.000000000000000000 ) ) ;
#147 = FILL_AREA_STYLE ('',( #50 ) ) ;
#148 = DIRECTION ( 'NONE',  ( 0.0000000000000000000, -1.000000000000000000, 0.0000000000000000000 ) ) ;
#149 =( LENGTH_UNIT ( ) NAMED_UNIT ( * ) SI_UNIT ( .MILLI., .METRE. ) );
#150 = ORIENTED_EDGE ( 'NONE', *, *, #79, .F. ) ;
#151 = PRODUCT_DEFINITION_FORMATION_WITH_SPECIFIED_SOURCE ( 'ÈÎºÎ', '', #33, .NOT_KNOWN. ) ;
#152 = AXIS2_PLACEMENT_3D ( 'NONE', #43, #146, #84 ) ;
#153 = PRODUCT_DEFINITION_SHAPE ( 'NONE', 'NONE',  #124 ) ;
#154 = ORIENTED_EDGE ( 'NONE', *, *, #36, .F. ) ;
#155 = VECTOR ( 'NONE', #14, 1000.000000000000000 ) ;
#156 = ADVANCED_FACE ( 'NONE', ( #74 ), #137, .T. ) ;
#157 = DIRECTION ( 'NONE',  ( 0.0000000000000000000, 0.0000000000000000000, -1.000000000000000000 ) ) ;
#158 = SURFACE_SIDE_STYLE ('',( #91 ) ) ;
#159 = DIRECTION ( 'NONE',  ( 1.000000000000000000, 0.0000000000000000000, 0.0000000000000000000 ) ) ;
#160 = AXIS2_PLACEMENT_3D ( 'NONE', #47, #75, #34 ) ;
#161 = APPLICATION_CONTEXT ( 'automotive_design' ) ;
#162 = AXIS2_PLACEMENT_3D ( 'NONE', #99, #49, #159 ) ;
#163 = VERTEX_POINT ( 'NONE', #9 ) ;
#164 = CIRCLE ( 'NONE', #162, 10.32999999999999800 ) ;
#165 = ORIENTED_EDGE ( 'NONE', *, *, #45, .T. ) ;
#166 = MECHANICAL_DESIGN_GEOMETRIC_PRESENTATION_REPRESENTATION (  '', ( #78 ), #51 ) ;
ENDSEC;
END-ISO-10303-21;
