ISO-10303-21;
HEADER;
FILE_DESCRIPTION (( 'STEP AP214' ),
    '1' );
FILE_NAME ('120162.STEP',
    '2019-06-21T01:57:09',
    ( '' ),
    ( '' ),
    'SwSTEP 2.0',
    'SolidWorks 2016',
    '' );
FILE_SCHEMA (( 'AUTOMOTIVE_DESIGN' ));
ENDSEC;

DATA;
#1 = SHAPE_DEFINITION_REPRESENTATION ( #120, #37 ) ;
#2 = ORIENTED_EDGE ( 'NONE', *, *, #142, .F. ) ;
#3 = VERTEX_POINT ( 'NONE', #156 ) ;
#4 = COLOUR_RGB ( '',1.000000000000000000, 1.000000000000000000, 1.000000000000000000 ) ;
#5 = MANIFOLD_SOLID_BREP ( 'Ðý×ª1', #149 ) ;
#6 =( NAMED_UNIT ( * ) SI_UNIT ( $, .STERADIAN. ) SOLID_ANGLE_UNIT ( ) );
#7 = CARTESIAN_POINT ( 'NONE',  ( 59.35819015802101700, 32.57872591329580600, 0.0000000000000000000 ) ) ;
#8 = DIRECTION ( 'NONE',  ( -1.000000000000000000, 7.636108817321419600E-016, -0.0000000000000000000 ) ) ;
#9 = FILL_AREA_STYLE ('',( #89 ) ) ;
#10 = EDGE_CURVE ( 'NONE', #14, #3, #100, .T. ) ;
#11 = PRODUCT_RELATED_PRODUCT_CATEGORY ( 'part', '', ( #114 ) ) ;
#12 = ORIENTED_EDGE ( 'NONE', *, *, #21, .T. ) ;
#13 = LINE ( 'NONE', #93, #155 ) ;
#14 = VERTEX_POINT ( 'NONE', #137 ) ;
#15 = STYLED_ITEM ( 'NONE', ( #49 ), #5 ) ;
#16 = FACE_OUTER_BOUND ( 'NONE', #19, .T. ) ;
#17 =( NAMED_UNIT ( * ) SI_UNIT ( $, .STERADIAN. ) SOLID_ANGLE_UNIT ( ) );
#18 = DIRECTION ( 'NONE',  ( -1.000000000000000000, 7.636108817321419600E-016, -0.0000000000000000000 ) ) ;
#19 = EDGE_LOOP ( 'NONE', ( #65, #58, #91 ) ) ;
#20 = SURFACE_STYLE_USAGE ( .BOTH. , #107 ) ;
#21 = EDGE_CURVE ( 'NONE', #14, #27, #134, .T. ) ;
#22 = DIRECTION ( 'NONE',  ( 1.000000000000000000, -7.636108817321419600E-016, 0.0000000000000000000 ) ) ;
#23 = CIRCLE ( 'NONE', #151, 12.49999999999999600 ) ;
#24 = DIRECTION ( 'NONE',  ( -1.000000000000000000, 7.636108817321419600E-016, -0.0000000000000000000 ) ) ;
#25 = AXIS2_PLACEMENT_3D ( 'NONE', #84, #144, #47 ) ;
#26 = ORIENTED_EDGE ( 'NONE', *, *, #78, .T. ) ;
#27 = VERTEX_POINT ( 'NONE', #54 ) ;
#28 = VECTOR ( 'NONE', #56, 1000.000000000000000 ) ;
#29 = ORIENTED_EDGE ( 'NONE', *, *, #111, .F. ) ;
#30 = AXIS2_PLACEMENT_3D ( 'NONE', #105, #57, #73 ) ;
#31 = AXIS2_PLACEMENT_3D ( 'NONE', #150, #22, #60 ) ;
#32 = MECHANICAL_DESIGN_GEOMETRIC_PRESENTATION_REPRESENTATION (  '', ( #15 ), #141 ) ;
#33 = FILL_AREA_STYLE ('',( #115 ) ) ;
#34 = CARTESIAN_POINT ( 'NONE',  ( 55.00739462442118100, 32.57872591329309800, 0.0000000000000000000 ) ) ;
#35 =( LENGTH_UNIT ( ) NAMED_UNIT ( * ) SI_UNIT ( .MILLI., .METRE. ) );
#36 = DIRECTION ( 'NONE',  ( -1.000000000000000000, 7.636108817321419600E-016, -0.0000000000000000000 ) ) ;
#37 = ADVANCED_BREP_SHAPE_REPRESENTATION ( '120162', ( #5, #55 ), #63 ) ;
#38 =( LENGTH_UNIT ( ) NAMED_UNIT ( * ) SI_UNIT ( .MILLI., .METRE. ) );
#39 = AXIS2_PLACEMENT_3D ( 'NONE', #132, #61, #75 ) ;
#40 = FACE_OUTER_BOUND ( 'NONE', #162, .T. ) ;
#41 = CARTESIAN_POINT ( 'NONE',  ( 59.50947078321711800, 32.57872591329309800, 0.0000000000000000000 ) ) ;
#42 = ORIENTED_EDGE ( 'NONE', *, *, #78, .F. ) ;
#43 = AXIS2_PLACEMENT_3D ( 'NONE', #44, #18, #85 ) ;
#44 = CARTESIAN_POINT ( 'NONE',  ( 57.35819015802111000, 32.57872591329309800, 0.0000000000000000000 ) ) ;
#45 = DIRECTION ( 'NONE',  ( -9.351536221073556900E-032, -1.224646799147353200E-016, 1.000000000000000000 ) ) ;
#46 = CARTESIAN_POINT ( 'NONE',  ( 0.0000000000000000000, 0.0000000000000000000, 0.0000000000000000000 ) ) ;
#47 = DIRECTION ( 'NONE',  ( -5.551115123125785700E-016, -1.000000000000000000, 0.0000000000000000000 ) ) ;
#48 = EDGE_LOOP ( 'NONE', ( #119, #51 ) ) ;
#49 = PRESENTATION_STYLE_ASSIGNMENT (( #70 ) ) ;
#50 = CIRCLE ( 'NONE', #113, 516.5000000000000000 ) ;
#51 = ORIENTED_EDGE ( 'NONE', *, *, #122, .T. ) ;
#52 = AXIS2_PLACEMENT_3D ( 'NONE', #117, #165, #139 ) ;
#53 = SPHERICAL_SURFACE ( 'NONE', #52, 516.5000000000000000 ) ;
#54 = CARTESIAN_POINT ( 'NONE',  ( 59.50947078321711100, 20.07872591329509100, 0.0000000000000000000 ) ) ;
#55 = AXIS2_PLACEMENT_3D ( 'NONE', #46, #138, #166 ) ;
#56 = DIRECTION ( 'NONE',  ( -1.000000000000000000, 7.636108817321419600E-016, -0.0000000000000000000 ) ) ;
#57 = DIRECTION ( 'NONE',  ( 0.0000000000000000000, 0.0000000000000000000, 1.000000000000000000 ) ) ;
#58 = ORIENTED_EDGE ( 'NONE', *, *, #102, .T. ) ;
#59 = COLOUR_RGB ( '',1.000000000000000000, 1.000000000000000000, 1.000000000000000000 ) ;
#60 = DIRECTION ( 'NONE',  ( 7.636108817321419600E-016, 1.000000000000000000, 0.0000000000000000000 ) ) ;
#61 = DIRECTION ( 'NONE',  ( 0.0000000000000000000, -0.0000000000000000000, -1.000000000000000000 ) ) ;
#62 = APPLICATION_PROTOCOL_DEFINITION ( 'draft international standard', 'automotive_design', 1998, #140 ) ;
#63 =( GEOMETRIC_REPRESENTATION_CONTEXT ( 3 ) GLOBAL_UNCERTAINTY_ASSIGNED_CONTEXT ( ( #133 ) ) GLOBAL_UNIT_ASSIGNED_CONTEXT ( ( #35, #130, #128 ) ) REPRESENTATION_CONTEXT ( 'NONE', 'WORKASPACE' ) );
#64 = ADVANCED_FACE ( 'NONE', ( #125 ), #95, .T. ) ;
#65 = ORIENTED_EDGE ( 'NONE', *, *, #21, .F. ) ;
#66 = PRODUCT_DEFINITION_CONTEXT ( 'detailed design', #140, 'design' ) ;
#67 = AXIS2_PLACEMENT_3D ( 'NONE', #83, #103, #124 ) ;
#68 = PRODUCT_DEFINITION ( 'Î´Öª', '', #77, #66 ) ;
#69 = SURFACE_SIDE_STYLE ('',( #90 ) ) ;
#70 = SURFACE_STYLE_USAGE ( .BOTH. , #69 ) ;
#71 = DIRECTION ( 'NONE',  ( -5.551115123125785700E-016, -1.000000000000000000, 0.0000000000000000000 ) ) ;
#72 = UNCERTAINTY_MEASURE_WITH_UNIT (LENGTH_MEASURE( 1.000000000000000100E-005 ), #160, 'distance_accuracy_value', 'NONE');
#73 = DIRECTION ( 'NONE',  ( -8.598048593418444700E-016, -1.000000000000000000, 0.0000000000000000000 ) ) ;
#74 = APPLICATION_CONTEXT ( 'automotive_design' ) ;
#75 = DIRECTION ( 'NONE',  ( -1.000000000000000000, 0.0000000000000000000, 0.0000000000000000000 ) ) ;
#76 = APPLICATION_PROTOCOL_DEFINITION ( 'draft international standard', 'automotive_design', 1998, #74 ) ;
#77 = PRODUCT_DEFINITION_FORMATION_WITH_SPECIFIED_SOURCE ( 'ÈÎºÎ', '', #114, .NOT_KNOWN. ) ;
#78 = EDGE_CURVE ( 'NONE', #27, #136, #13, .T. ) ;
#79 = PRESENTATION_LAYER_ASSIGNMENT (  '', '', ( #94 ) ) ;
#80 = ADVANCED_FACE ( 'NONE', ( #16 ), #53, .F. ) ;
#81 = EDGE_LOOP ( 'NONE', ( #154, #2, #157 ) ) ;
#82 = FACE_OUTER_BOUND ( 'NONE', #48, .T. ) ;
#83 = CARTESIAN_POINT ( 'NONE',  ( 55.00739462442118100, 32.57872591329309800, 0.0000000000000000000 ) ) ;
#84 = CARTESIAN_POINT ( 'NONE',  ( 59.50947078321711800, 32.57872591329309800, 0.0000000000000000000 ) ) ;
#85 = DIRECTION ( 'NONE',  ( -5.551115123125784700E-016, -1.000000000000000000, 0.0000000000000000000 ) ) ;
#86 = DIRECTION ( 'NONE',  ( -1.000000000000000000, 7.636108817321419600E-016, -0.0000000000000000000 ) ) ;
#87 = MECHANICAL_DESIGN_GEOMETRIC_PRESENTATION_REPRESENTATION (  '', ( #94 ), #158 ) ;
#88 = EDGE_LOOP ( 'NONE', ( #127, #129, #29, #42 ) ) ;
#89 = FILL_AREA_STYLE_COLOUR ( '', #4 ) ;
#90 = SURFACE_STYLE_FILL_AREA ( #33 ) ;
#91 = ORIENTED_EDGE ( 'NONE', *, *, #146, .F. ) ;
#92 = DIRECTION ( 'NONE',  ( 0.0000000000000000000, -1.000000000000000000, -1.224646799147353000E-016 ) ) ;
#93 = CARTESIAN_POINT ( 'NONE',  ( 55.00739462442117400, 20.07872591329310200, 0.0000000000000000000 ) ) ;
#94 = STYLED_ITEM ( 'NONE', ( #112 ), #37 ) ;
#95 = CYLINDRICAL_SURFACE ( 'NONE', #67, 12.49999999999999300 ) ;
#96 = ORIENTED_EDGE ( 'NONE', *, *, #10, .F. ) ;
#97 = FACE_OUTER_BOUND ( 'NONE', #81, .T. ) ;
#98 = UNCERTAINTY_MEASURE_WITH_UNIT (LENGTH_MEASURE( 1.000000000000000100E-005 ), #38, 'distance_accuracy_value', 'NONE');
#99 = AXIS2_PLACEMENT_3D ( 'NONE', #34, #8, #71 ) ;
#100 = LINE ( 'NONE', #116, #28 ) ;
#101 = CYLINDRICAL_SURFACE ( 'NONE', #99, 12.49999999999999300 ) ;
#102 = EDGE_CURVE ( 'NONE', #14, #123, #50, .T. ) ;
#103 = DIRECTION ( 'NONE',  ( -1.000000000000000000, 7.636108817321419600E-016, -0.0000000000000000000 ) ) ;
#104 =( NAMED_UNIT ( * ) PLANE_ANGLE_UNIT ( ) SI_UNIT ( $, .RADIAN. ) );
#105 = CARTESIAN_POINT ( 'NONE',  ( 575.8581901580209900, 32.57872591329544300, 0.0000000000000000000 ) ) ;
#106 = ORIENTED_EDGE ( 'NONE', *, *, #122, .F. ) ;
#107 = SURFACE_SIDE_STYLE ('',( #163 ) ) ;
#108 = PLANE ( 'NONE',  #31 ) ;
#109 = DIRECTION ( 'NONE',  ( -5.551115123125784700E-016, -1.000000000000000000, 0.0000000000000000000 ) ) ;
#110 = CARTESIAN_POINT ( 'NONE',  ( 57.35819015802111000, 32.57872591329309800, 0.0000000000000000000 ) ) ;
#111 = EDGE_CURVE ( 'NONE', #136, #3, #23, .T. ) ;
#112 = PRESENTATION_STYLE_ASSIGNMENT (( #20 ) ) ;
#113 = AXIS2_PLACEMENT_3D ( 'NONE', #131, #45, #92 ) ;
#114 = PRODUCT ( '120162', '120162', '', ( #164 ) ) ;
#115 = FILL_AREA_STYLE_COLOUR ( '', #59 ) ;
#116 = CARTESIAN_POINT ( 'NONE',  ( 55.00739462442118800, 45.07872591329309100, 1.530808498934190700E-015 ) ) ;
#117 = CARTESIAN_POINT ( 'NONE',  ( 575.8581901580209900, 32.57872591329544300, 0.0000000000000000000 ) ) ;
#118 = SPHERICAL_SURFACE ( 'NONE', #30, 516.5000000000000000 ) ;
#119 = ORIENTED_EDGE ( 'NONE', *, *, #111, .T. ) ;
#120 = PRODUCT_DEFINITION_SHAPE ( 'NONE', 'NONE',  #68 ) ;
#121 = CIRCLE ( 'NONE', #159, 12.49999999999999300 ) ;
#122 = EDGE_CURVE ( 'NONE', #3, #136, #153, .T. ) ;
#123 = VERTEX_POINT ( 'NONE', #7 ) ;
#124 = DIRECTION ( 'NONE',  ( -5.551115123125785700E-016, -1.000000000000000000, 0.0000000000000000000 ) ) ;
#125 = FACE_OUTER_BOUND ( 'NONE', #88, .T. ) ;
#126 =( NAMED_UNIT ( * ) PLANE_ANGLE_UNIT ( ) SI_UNIT ( $, .RADIAN. ) );
#127 = ORIENTED_EDGE ( 'NONE', *, *, #142, .T. ) ;
#128 =( NAMED_UNIT ( * ) SI_UNIT ( $, .STERADIAN. ) SOLID_ANGLE_UNIT ( ) );
#129 = ORIENTED_EDGE ( 'NONE', *, *, #10, .T. ) ;
#130 =( NAMED_UNIT ( * ) PLANE_ANGLE_UNIT ( ) SI_UNIT ( $, .RADIAN. ) );
#131 = CARTESIAN_POINT ( 'NONE',  ( 575.8581901580209900, 32.57872591329544300, 0.0000000000000000000 ) ) ;
#132 = CARTESIAN_POINT ( 'NONE',  ( 575.8581901580209900, 32.57872591329544300, 0.0000000000000000000 ) ) ;
#133 = UNCERTAINTY_MEASURE_WITH_UNIT (LENGTH_MEASURE( 1.000000000000000100E-005 ), #35, 'distance_accuracy_value', 'NONE');
#134 = CIRCLE ( 'NONE', #25, 12.49999999999999300 ) ;
#135 = ADVANCED_FACE ( 'NONE', ( #97 ), #118, .F. ) ;
#136 = VERTEX_POINT ( 'NONE', #147 ) ;
#137 = CARTESIAN_POINT ( 'NONE',  ( 59.50947078321711800, 45.07872591329384400, 1.530808498933947000E-015 ) ) ;
#138 = DIRECTION ( 'NONE',  ( 0.0000000000000000000, 0.0000000000000000000, 1.000000000000000000 ) ) ;
#139 = DIRECTION ( 'NONE',  ( -8.598048593418444700E-016, -1.000000000000000000, 0.0000000000000000000 ) ) ;
#140 = APPLICATION_CONTEXT ( 'automotive_design' ) ;
#141 =( GEOMETRIC_REPRESENTATION_CONTEXT ( 3 ) GLOBAL_UNCERTAINTY_ASSIGNED_CONTEXT ( ( #72 ) ) GLOBAL_UNIT_ASSIGNED_CONTEXT ( ( #160, #126, #17 ) ) REPRESENTATION_CONTEXT ( 'NONE', 'WORKASPACE' ) );
#142 = EDGE_CURVE ( 'NONE', #27, #14, #121, .T. ) ;
#143 = PRESENTATION_LAYER_ASSIGNMENT (  '', '', ( #15 ) ) ;
#144 = DIRECTION ( 'NONE',  ( -1.000000000000000000, 7.636108817321419600E-016, -0.0000000000000000000 ) ) ;
#145 = CIRCLE ( 'NONE', #39, 516.5000000000000000 ) ;
#146 = EDGE_CURVE ( 'NONE', #27, #123, #145, .T. ) ;
#147 = CARTESIAN_POINT ( 'NONE',  ( 57.35819015802110200, 20.07872591329309800, 0.0000000000000000000 ) ) ;
#148 = DIRECTION ( 'NONE',  ( -5.551115123125785700E-016, -1.000000000000000000, 0.0000000000000000000 ) ) ;
#149 = CLOSED_SHELL ( 'NONE', ( #64, #80, #135, #152, #161 ) ) ;
#150 = CARTESIAN_POINT ( 'NONE',  ( 57.35819015802111000, 32.57872591329309100, 0.0000000000000000000 ) ) ;
#151 = AXIS2_PLACEMENT_3D ( 'NONE', #110, #24, #109 ) ;
#152 = ADVANCED_FACE ( 'NONE', ( #40 ), #101, .T. ) ;
#153 = CIRCLE ( 'NONE', #43, 12.49999999999999600 ) ;
#154 = ORIENTED_EDGE ( 'NONE', *, *, #102, .F. ) ;
#155 = VECTOR ( 'NONE', #36, 1000.000000000000000 ) ;
#156 = CARTESIAN_POINT ( 'NONE',  ( 57.35819015802111700, 45.07872591329309100, 1.530808498934191100E-015 ) ) ;
#157 = ORIENTED_EDGE ( 'NONE', *, *, #146, .T. ) ;
#158 =( GEOMETRIC_REPRESENTATION_CONTEXT ( 3 ) GLOBAL_UNCERTAINTY_ASSIGNED_CONTEXT ( ( #98 ) ) GLOBAL_UNIT_ASSIGNED_CONTEXT ( ( #38, #104, #6 ) ) REPRESENTATION_CONTEXT ( 'NONE', 'WORKASPACE' ) );
#159 = AXIS2_PLACEMENT_3D ( 'NONE', #41, #86, #148 ) ;
#160 =( LENGTH_UNIT ( ) NAMED_UNIT ( * ) SI_UNIT ( .MILLI., .METRE. ) );
#161 = ADVANCED_FACE ( 'NONE', ( #82 ), #108, .F. ) ;
#162 = EDGE_LOOP ( 'NONE', ( #96, #12, #26, #106 ) ) ;
#163 = SURFACE_STYLE_FILL_AREA ( #9 ) ;
#164 = PRODUCT_CONTEXT ( 'NONE', #74, 'mechanical' ) ;
#165 = DIRECTION ( 'NONE',  ( 0.0000000000000000000, 0.0000000000000000000, 1.000000000000000000 ) ) ;
#166 = DIRECTION ( 'NONE',  ( 1.000000000000000000, 0.0000000000000000000, 0.0000000000000000000 ) ) ;
ENDSEC;
END-ISO-10303-21;
