ISO-10303-21;
HEADER;
FILE_DESCRIPTION (( 'STEP AP214' ),
    '1' );
FILE_NAME ('120163.STEP',
    '2019-06-21T02:05:19',
    ( '' ),
    ( '' ),
    'SwSTEP 2.0',
    'SolidWorks 2016',
    '' );
FILE_SCHEMA (( 'AUTOMOTIVE_DESIGN' ));
ENDSEC;

DATA;
#1 = CYLINDRICAL_SURFACE ( 'NONE', #66, 17.00000000000000700 ) ;
#2 = CARTESIAN_POINT ( 'NONE',  ( 114.9861710933241500, 48.15745182658619000, 0.0000000000000000000 ) ) ;
#3 = DIRECTION ( 'NONE',  ( -1.000000000000000000, 7.636108817321419600E-016, -0.0000000000000000000 ) ) ;
#4 = ORIENTED_EDGE ( 'NONE', *, *, #151, .T. ) ;
#5 = DIRECTION ( 'NONE',  ( 1.000000000000000000, -7.636108817321419600E-016, 0.0000000000000000000 ) ) ;
#6 =( NAMED_UNIT ( * ) SI_UNIT ( $, .STERADIAN. ) SOLID_ANGLE_UNIT ( ) );
#7 = SURFACE_STYLE_FILL_AREA ( #153 ) ;
#8 = EDGE_CURVE ( 'NONE', #36, #21, #11, .T. ) ;
#9 = DIRECTION ( 'NONE',  ( -8.163404592832030000E-016, -1.000000000000000000, 0.0000000000000000000 ) ) ;
#10 = MANIFOLD_SOLID_BREP ( 'Ðý×ª1', #14 ) ;
#11 = LINE ( 'NONE', #60, #53 ) ;
#12 = DIRECTION ( 'NONE',  ( -8.163404592832033000E-016, -1.000000000000000000, 0.0000000000000000000 ) ) ;
#13 = APPLICATION_PROTOCOL_DEFINITION ( 'draft international standard', 'automotive_design', 1998, #24 ) ;
#14 = CLOSED_SHELL ( 'NONE', ( #22, #54, #125, #80, #78 ) ) ;
#15 = CARTESIAN_POINT ( 'NONE',  ( 119.8938292209843600, 48.15745182658627500, 0.0000000000000000000 ) ) ;
#16 = EDGE_CURVE ( 'NONE', #110, #154, #42, .T. ) ;
#17 = CARTESIAN_POINT ( 'NONE',  ( 110.0147892488423600, 65.15745182658619700, 0.0000000000000000000 ) ) ;
#18 = SURFACE_SIDE_STYLE ('',( #75 ) ) ;
#19 = DIRECTION ( 'NONE',  ( 7.636108817321419600E-016, 1.000000000000000000, 0.0000000000000000000 ) ) ;
#20 = CARTESIAN_POINT ( 'NONE',  ( 114.9861710933241600, 65.15745182658619700, 0.0000000000000000000 ) ) ;
#21 = VERTEX_POINT ( 'NONE', #48 ) ;
#22 = ADVANCED_FACE ( 'NONE', ( #152 ), #1, .T. ) ;
#23 =( LENGTH_UNIT ( ) NAMED_UNIT ( * ) SI_UNIT ( .MILLI., .METRE. ) );
#24 = APPLICATION_CONTEXT ( 'automotive_design' ) ;
#25 = APPLICATION_PROTOCOL_DEFINITION ( 'draft international standard', 'automotive_design', 1998, #113 ) ;
#26 = EDGE_LOOP ( 'NONE', ( #145, #44, #82, #41 ) ) ;
#27 = PRESENTATION_LAYER_ASSIGNMENT (  '', '', ( #69 ) ) ;
#28 = SHAPE_DEFINITION_REPRESENTATION ( #128, #147 ) ;
#29 = PRODUCT_DEFINITION_FORMATION_WITH_SPECIFIED_SOURCE ( 'ÈÎºÎ', '', #142, .NOT_KNOWN. ) ;
#30 = CIRCLE ( 'NONE', #144, 88.00000000000000000 ) ;
#31 =( LENGTH_UNIT ( ) NAMED_UNIT ( * ) SI_UNIT ( .MILLI., .METRE. ) );
#32 = PLANE ( 'NONE',  #55 ) ;
#33 = VERTEX_POINT ( 'NONE', #122 ) ;
#34 = DIRECTION ( 'NONE',  ( -1.000000000000000000, 7.636108817321419600E-016, -0.0000000000000000000 ) ) ;
#35 = PRODUCT_DEFINITION_CONTEXT ( 'detailed design', #113, 'design' ) ;
#36 = VERTEX_POINT ( 'NONE', #47 ) ;
#37 = COLOUR_RGB ( '',1.000000000000000000, 1.000000000000000000, 1.000000000000000000 ) ;
#38 = AXIS2_PLACEMENT_3D ( 'NONE', #111, #135, #87 ) ;
#39 = CARTESIAN_POINT ( 'NONE',  ( 114.9861710933241600, 65.15745182658619700, 0.0000000000000000000 ) ) ;
#40 = CARTESIAN_POINT ( 'NONE',  ( 206.2361710933241700, 65.15745182658622500, 0.0000000000000000000 ) ) ;
#41 = ORIENTED_EDGE ( 'NONE', *, *, #151, .F. ) ;
#42 = LINE ( 'NONE', #74, #45 ) ;
#43 = UNCERTAINTY_MEASURE_WITH_UNIT (LENGTH_MEASURE( 1.000000000000000100E-005 ), #23, 'distance_accuracy_value', 'NONE');
#44 = ORIENTED_EDGE ( 'NONE', *, *, #84, .T. ) ;
#45 = VECTOR ( 'NONE', #3, 1000.000000000000000 ) ;
#46 =( GEOMETRIC_REPRESENTATION_CONTEXT ( 3 ) GLOBAL_UNCERTAINTY_ASSIGNED_CONTEXT ( ( #117 ) ) GLOBAL_UNIT_ASSIGNED_CONTEXT ( ( #31, #158, #109 ) ) REPRESENTATION_CONTEXT ( 'NONE', 'WORKASPACE' ) );
#47 = CARTESIAN_POINT ( 'NONE',  ( 119.8938292209843900, 82.15745182658618300, 2.081899558550488100E-015 ) ) ;
#48 = CARTESIAN_POINT ( 'NONE',  ( 114.9861710933241700, 82.15745182658619700, 2.081899558550503800E-015 ) ) ;
#49 = ORIENTED_EDGE ( 'NONE', *, *, #165, .T. ) ;
#50 = PRESENTATION_STYLE_ASSIGNMENT (( #71 ) ) ;
#51 = ORIENTED_EDGE ( 'NONE', *, *, #155, .T. ) ;
#52 = CARTESIAN_POINT ( 'NONE',  ( 206.2361710933241700, 65.15745182658622500, 0.0000000000000000000 ) ) ;
#53 = VECTOR ( 'NONE', #76, 1000.000000000000000 ) ;
#54 = ADVANCED_FACE ( 'NONE', ( #156 ), #114, .F. ) ;
#55 = AXIS2_PLACEMENT_3D ( 'NONE', #61, #5, #19 ) ;
#56 = EDGE_LOOP ( 'NONE', ( #51, #103, #123, #148 ) ) ;
#57 = PRESENTATION_STYLE_ASSIGNMENT (( #83 ) ) ;
#58 = DIRECTION ( 'NONE',  ( -8.163404592832030000E-016, -1.000000000000000000, 0.0000000000000000000 ) ) ;
#59 = CIRCLE ( 'NONE', #132, 17.00000000000000700 ) ;
#60 = CARTESIAN_POINT ( 'NONE',  ( 110.0147892488423800, 82.15745182658621100, 2.081899558550501500E-015 ) ) ;
#61 = CARTESIAN_POINT ( 'NONE',  ( 114.9861710933241700, 65.15745182658619700, 0.0000000000000000000 ) ) ;
#62 = CARTESIAN_POINT ( 'NONE',  ( 119.8938292209843700, 65.15745182658618300, 0.0000000000000000000 ) ) ;
#63 = ORIENTED_EDGE ( 'NONE', *, *, #157, .F. ) ;
#64 = DIRECTION ( 'NONE',  ( 0.0000000000000000000, -1.000000000000000000, -1.224646799147353200E-016 ) ) ;
#65 = CIRCLE ( 'NONE', #98, 17.00000000000000000 ) ;
#66 = AXIS2_PLACEMENT_3D ( 'NONE', #17, #119, #96 ) ;
#67 = DIRECTION ( 'NONE',  ( 0.0000000000000000000, 0.0000000000000000000, 1.000000000000000000 ) ) ;
#68 = DIRECTION ( 'NONE',  ( -1.000000000000000000, 7.636108817321419600E-016, -0.0000000000000000000 ) ) ;
#69 = STYLED_ITEM ( 'NONE', ( #50 ), #10 ) ;
#70 = PRODUCT_RELATED_PRODUCT_CATEGORY ( 'part', '', ( #142 ) ) ;
#71 = SURFACE_STYLE_USAGE ( .BOTH. , #18 ) ;
#72 = DIRECTION ( 'NONE',  ( -8.163404592832030000E-016, -1.000000000000000000, 0.0000000000000000000 ) ) ;
#73 = AXIS2_PLACEMENT_3D ( 'NONE', #52, #140, #64 ) ;
#74 = CARTESIAN_POINT ( 'NONE',  ( 110.0147892488423500, 48.15745182658618300, 0.0000000000000000000 ) ) ;
#75 = SURFACE_STYLE_FILL_AREA ( #88 ) ;
#76 = DIRECTION ( 'NONE',  ( -1.000000000000000000, 7.636108817321419600E-016, -0.0000000000000000000 ) ) ;
#77 = FILL_AREA_STYLE_COLOUR ( '', #37 ) ;
#78 = ADVANCED_FACE ( 'NONE', ( #107 ), #32, .F. ) ;
#79 = ORIENTED_EDGE ( 'NONE', *, *, #84, .F. ) ;
#80 = ADVANCED_FACE ( 'NONE', ( #116 ), #89, .T. ) ;
#81 = DIRECTION ( 'NONE',  ( 0.0000000000000000000, 0.0000000000000000000, 1.000000000000000000 ) ) ;
#82 = ORIENTED_EDGE ( 'NONE', *, *, #16, .T. ) ;
#83 = SURFACE_STYLE_USAGE ( .BOTH. , #159 ) ;
#84 = EDGE_CURVE ( 'NONE', #36, #110, #100, .T. ) ;
#85 = EDGE_LOOP ( 'NONE', ( #130, #164, #166 ) ) ;
#86 = AXIS2_PLACEMENT_3D ( 'NONE', #62, #133, #58 ) ;
#87 = DIRECTION ( 'NONE',  ( -6.308085367188390200E-016, -1.000000000000000000, 0.0000000000000000000 ) ) ;
#88 = FILL_AREA_STYLE ('',( #120 ) ) ;
#89 = CYLINDRICAL_SURFACE ( 'NONE', #108, 17.00000000000000700 ) ;
#90 = AXIS2_PLACEMENT_3D ( 'NONE', #40, #67, #102 ) ;
#91 = DIRECTION ( 'NONE',  ( -8.163404592832033000E-016, -1.000000000000000000, 0.0000000000000000000 ) ) ;
#92 = CARTESIAN_POINT ( 'NONE',  ( 0.0000000000000000000, 0.0000000000000000000, 0.0000000000000000000 ) ) ;
#93 = MECHANICAL_DESIGN_GEOMETRIC_PRESENTATION_REPRESENTATION (  '', ( #121 ), #139 ) ;
#94 = PRODUCT_DEFINITION ( 'Î´Öª', '', #29, #35 ) ;
#95 = FACE_OUTER_BOUND ( 'NONE', #85, .T. ) ;
#96 = DIRECTION ( 'NONE',  ( -8.163404592832030000E-016, -1.000000000000000000, 0.0000000000000000000 ) ) ;
#97 = CIRCLE ( 'NONE', #73, 88.00000000000000000 ) ;
#98 = AXIS2_PLACEMENT_3D ( 'NONE', #39, #160, #91 ) ;
#99 = MECHANICAL_DESIGN_GEOMETRIC_PRESENTATION_REPRESENTATION (  '', ( #69 ), #46 ) ;
#100 = CIRCLE ( 'NONE', #86, 17.00000000000000700 ) ;
#101 = DIRECTION ( 'NONE',  ( 0.0000000000000000000, -0.0000000000000000000, -1.000000000000000000 ) ) ;
#102 = DIRECTION ( 'NONE',  ( -6.308085367188390200E-016, -1.000000000000000000, 0.0000000000000000000 ) ) ;
#103 = ORIENTED_EDGE ( 'NONE', *, *, #8, .T. ) ;
#104 =( GEOMETRIC_REPRESENTATION_CONTEXT ( 3 ) GLOBAL_UNCERTAINTY_ASSIGNED_CONTEXT ( ( #134 ) ) GLOBAL_UNIT_ASSIGNED_CONTEXT ( ( #149, #124, #6 ) ) REPRESENTATION_CONTEXT ( 'NONE', 'WORKASPACE' ) );
#105 = AXIS2_PLACEMENT_3D ( 'NONE', #92, #81, #162 ) ;
#106 = COLOUR_RGB ( '',1.000000000000000000, 1.000000000000000000, 1.000000000000000000 ) ;
#107 = FACE_OUTER_BOUND ( 'NONE', #118, .T. ) ;
#108 = AXIS2_PLACEMENT_3D ( 'NONE', #146, #34, #72 ) ;
#109 =( NAMED_UNIT ( * ) SI_UNIT ( $, .STERADIAN. ) SOLID_ANGLE_UNIT ( ) );
#110 = VERTEX_POINT ( 'NONE', #15 ) ;
#111 = CARTESIAN_POINT ( 'NONE',  ( 206.2361710933241700, 65.15745182658622500, 0.0000000000000000000 ) ) ;
#112 = CARTESIAN_POINT ( 'NONE',  ( 206.2361710933241700, 65.15745182658622500, 0.0000000000000000000 ) ) ;
#113 = APPLICATION_CONTEXT ( 'automotive_design' ) ;
#114 = SPHERICAL_SURFACE ( 'NONE', #38, 88.00000000000000000 ) ;
#115 = EDGE_CURVE ( 'NONE', #36, #33, #97, .T. ) ;
#116 = FACE_OUTER_BOUND ( 'NONE', #26, .T. ) ;
#117 = UNCERTAINTY_MEASURE_WITH_UNIT (LENGTH_MEASURE( 1.000000000000000100E-005 ), #31, 'distance_accuracy_value', 'NONE');
#118 = EDGE_LOOP ( 'NONE', ( #49, #4 ) ) ;
#119 = DIRECTION ( 'NONE',  ( -1.000000000000000000, 7.636108817321419600E-016, -0.0000000000000000000 ) ) ;
#120 = FILL_AREA_STYLE_COLOUR ( '', #106 ) ;
#121 = STYLED_ITEM ( 'NONE', ( #57 ), #147 ) ;
#122 = CARTESIAN_POINT ( 'NONE',  ( 118.2361710933241900, 65.15745182658628200, 0.0000000000000000000 ) ) ;
#123 = ORIENTED_EDGE ( 'NONE', *, *, #165, .F. ) ;
#124 =( NAMED_UNIT ( * ) PLANE_ANGLE_UNIT ( ) SI_UNIT ( $, .RADIAN. ) );
#125 = ADVANCED_FACE ( 'NONE', ( #95 ), #131, .F. ) ;
#126 = AXIS2_PLACEMENT_3D ( 'NONE', #20, #68, #12 ) ;
#127 =( NAMED_UNIT ( * ) SI_UNIT ( $, .STERADIAN. ) SOLID_ANGLE_UNIT ( ) );
#128 = PRODUCT_DEFINITION_SHAPE ( 'NONE', 'NONE',  #94 ) ;
#129 = PRESENTATION_LAYER_ASSIGNMENT (  '', '', ( #121 ) ) ;
#130 = ORIENTED_EDGE ( 'NONE', *, *, #115, .F. ) ;
#131 = SPHERICAL_SURFACE ( 'NONE', #90, 88.00000000000000000 ) ;
#132 = AXIS2_PLACEMENT_3D ( 'NONE', #143, #137, #9 ) ;
#133 = DIRECTION ( 'NONE',  ( -1.000000000000000000, 7.636108817321419600E-016, -0.0000000000000000000 ) ) ;
#134 = UNCERTAINTY_MEASURE_WITH_UNIT (LENGTH_MEASURE( 1.000000000000000100E-005 ), #149, 'distance_accuracy_value', 'NONE');
#135 = DIRECTION ( 'NONE',  ( 0.0000000000000000000, 0.0000000000000000000, 1.000000000000000000 ) ) ;
#136 = ORIENTED_EDGE ( 'NONE', *, *, #115, .T. ) ;
#137 = DIRECTION ( 'NONE',  ( -1.000000000000000000, 7.636108817321419600E-016, -0.0000000000000000000 ) ) ;
#138 = EDGE_LOOP ( 'NONE', ( #79, #136, #63 ) ) ;
#139 =( GEOMETRIC_REPRESENTATION_CONTEXT ( 3 ) GLOBAL_UNCERTAINTY_ASSIGNED_CONTEXT ( ( #43 ) ) GLOBAL_UNIT_ASSIGNED_CONTEXT ( ( #23, #163, #127 ) ) REPRESENTATION_CONTEXT ( 'NONE', 'WORKASPACE' ) );
#140 = DIRECTION ( 'NONE',  ( -9.351536221073556900E-032, -1.224646799147353200E-016, 1.000000000000000000 ) ) ;
#141 = PRODUCT_CONTEXT ( 'NONE', #24, 'mechanical' ) ;
#142 = PRODUCT ( '120163', '120163', '', ( #141 ) ) ;
#143 = CARTESIAN_POINT ( 'NONE',  ( 119.8938292209843700, 65.15745182658618300, 0.0000000000000000000 ) ) ;
#144 = AXIS2_PLACEMENT_3D ( 'NONE', #112, #101, #150 ) ;
#145 = ORIENTED_EDGE ( 'NONE', *, *, #8, .F. ) ;
#146 = CARTESIAN_POINT ( 'NONE',  ( 110.0147892488423600, 65.15745182658619700, 0.0000000000000000000 ) ) ;
#147 = ADVANCED_BREP_SHAPE_REPRESENTATION ( '120163', ( #10, #105 ), #104 ) ;
#148 = ORIENTED_EDGE ( 'NONE', *, *, #16, .F. ) ;
#149 =( LENGTH_UNIT ( ) NAMED_UNIT ( * ) SI_UNIT ( .MILLI., .METRE. ) );
#150 = DIRECTION ( 'NONE',  ( -1.000000000000000000, 0.0000000000000000000, 0.0000000000000000000 ) ) ;
#151 = EDGE_CURVE ( 'NONE', #21, #154, #161, .T. ) ;
#152 = FACE_OUTER_BOUND ( 'NONE', #56, .T. ) ;
#153 = FILL_AREA_STYLE ('',( #77 ) ) ;
#154 = VERTEX_POINT ( 'NONE', #2 ) ;
#155 = EDGE_CURVE ( 'NONE', #110, #36, #59, .T. ) ;
#156 = FACE_OUTER_BOUND ( 'NONE', #138, .T. ) ;
#157 = EDGE_CURVE ( 'NONE', #110, #33, #30, .T. ) ;
#158 =( NAMED_UNIT ( * ) PLANE_ANGLE_UNIT ( ) SI_UNIT ( $, .RADIAN. ) );
#159 = SURFACE_SIDE_STYLE ('',( #7 ) ) ;
#160 = DIRECTION ( 'NONE',  ( -1.000000000000000000, 7.636108817321419600E-016, -0.0000000000000000000 ) ) ;
#161 = CIRCLE ( 'NONE', #126, 17.00000000000000000 ) ;
#162 = DIRECTION ( 'NONE',  ( 1.000000000000000000, 0.0000000000000000000, 0.0000000000000000000 ) ) ;
#163 =( NAMED_UNIT ( * ) PLANE_ANGLE_UNIT ( ) SI_UNIT ( $, .RADIAN. ) );
#164 = ORIENTED_EDGE ( 'NONE', *, *, #155, .F. ) ;
#165 = EDGE_CURVE ( 'NONE', #154, #21, #65, .T. ) ;
#166 = ORIENTED_EDGE ( 'NONE', *, *, #157, .T. ) ;
ENDSEC;
END-ISO-10303-21;
