ISO-10303-21;
HEADER;
FILE_DESCRIPTION (( 'STEP AP214' ),
    '1' );
FILE_NAME ('120165.STEP',
    '2019-06-21T02:25:47',
    ( '' ),
    ( '' ),
    'SwSTEP 2.0',
    'SolidWorks 2016',
    '' );
FILE_SCHEMA (( 'AUTOMOTIVE_DESIGN' ));
ENDSEC;

DATA;
#1 =( NAMED_UNIT ( * ) SI_UNIT ( $, .STERADIAN. ) SOLID_ANGLE_UNIT ( ) );
#2 = EDGE_CURVE ( 'NONE', #105, #151, #16, .T. ) ;
#3 = ORIENTED_EDGE ( 'NONE', *, *, #146, .T. ) ;
#4 =( NAMED_UNIT ( * ) PLANE_ANGLE_UNIT ( ) SI_UNIT ( $, .RADIAN. ) );
#5 =( LENGTH_UNIT ( ) NAMED_UNIT ( * ) SI_UNIT ( .MILLI., .METRE. ) );
#6 = SURFACE_SIDE_STYLE ('',( #112 ) ) ;
#7 = DIRECTION ( 'NONE',  ( -6.938893903907222500E-016, -1.000000000000000000, 0.0000000000000000000 ) ) ;
#8 = COLOUR_RGB ( '',1.000000000000000000, 1.000000000000000000, 1.000000000000000000 ) ;
#9 = PRODUCT_DEFINITION_FORMATION_WITH_SPECIFIED_SOURCE ( 'ÈÎºÎ', '', #25, .NOT_KNOWN. ) ;
#10 = CIRCLE ( 'NONE', #83, 32.50000000000001400 ) ;
#11 = ORIENTED_EDGE ( 'NONE', *, *, #2, .T. ) ;
#12 = EDGE_LOOP ( 'NONE', ( #78, #53, #97 ) ) ;
#13 = ORIENTED_EDGE ( 'NONE', *, *, #48, .T. ) ;
#14 = MECHANICAL_DESIGN_GEOMETRIC_PRESENTATION_REPRESENTATION (  '', ( #68 ), #61 ) ;
#15 = DIRECTION ( 'NONE',  ( -1.000000000000000000, 6.488933942079480100E-016, -0.0000000000000000000 ) ) ;
#16 = CIRCLE ( 'NONE', #22, 20.00000000000000400 ) ;
#17 = CARTESIAN_POINT ( 'NONE',  ( 114.9754472601862100, 65.15745182658619700, 0.0000000000000000000 ) ) ;
#18 = FILL_AREA_STYLE_COLOUR ( '', #165 ) ;
#19 = DIRECTION ( 'NONE',  ( -7.946652182046252500E-032, -1.224646799147353200E-016, 1.000000000000000000 ) ) ;
#20 = CARTESIAN_POINT ( 'NONE',  ( 124.3580703452872000, 65.15745182658618300, 0.0000000000000000000 ) ) ;
#21 = MECHANICAL_DESIGN_GEOMETRIC_PRESENTATION_REPRESENTATION (  '', ( #54 ), #58 ) ;
#22 = AXIS2_PLACEMENT_3D ( 'NONE', #145, #70, #69 ) ;
#23 = ORIENTED_EDGE ( 'NONE', *, *, #114, .F. ) ;
#24 = PRESENTATION_LAYER_ASSIGNMENT (  '', '', ( #54 ) ) ;
#25 = PRODUCT ( '120165', '120165', '', ( #103 ) ) ;
#26 = ADVANCED_FACE ( 'NONE', ( #76 ), #154, .F. ) ;
#27 = ORIENTED_EDGE ( 'NONE', *, *, #55, .F. ) ;
#28 = CIRCLE ( 'NONE', #99, 20.00000000000000400 ) ;
#29 = DIRECTION ( 'NONE',  ( 0.0000000000000000000, 0.0000000000000000000, 1.000000000000000000 ) ) ;
#30 = DIRECTION ( 'NONE',  ( 0.0000000000000000000, 0.0000000000000000000, 1.000000000000000000 ) ) ;
#31 = AXIS2_PLACEMENT_3D ( 'NONE', #137, #91, #60 ) ;
#32 = APPLICATION_PROTOCOL_DEFINITION ( 'draft international standard', 'automotive_design', 1998, #160 ) ;
#33 = DIRECTION ( 'NONE',  ( -8.540177112501200400E-016, -1.000000000000000000, 0.0000000000000000000 ) ) ;
#34 = VECTOR ( 'NONE', #130, 1000.000000000000000 ) ;
#35 = DIRECTION ( 'NONE',  ( -6.938893903907224400E-016, -1.000000000000000000, 0.0000000000000000000 ) ) ;
#36 = DIRECTION ( 'NONE',  ( -1.000000000000000000, 6.488933942079480100E-016, -0.0000000000000000000 ) ) ;
#37 = CIRCLE ( 'NONE', #139, 20.00000000000001800 ) ;
#38 = EDGE_LOOP ( 'NONE', ( #27, #150, #13, #141 ) ) ;
#39 = FACE_OUTER_BOUND ( 'NONE', #125, .T. ) ;
#40 = PRODUCT_DEFINITION_SHAPE ( 'NONE', 'NONE',  #116 ) ;
#41 = PRESENTATION_LAYER_ASSIGNMENT (  '', '', ( #68 ) ) ;
#42 = AXIS2_PLACEMENT_3D ( 'NONE', #102, #30, #33 ) ;
#43 = VECTOR ( 'NONE', #15, 1000.000000000000000 ) ;
#44 = FILL_AREA_STYLE_COLOUR ( '', #8 ) ;
#45 = SURFACE_STYLE_USAGE ( .BOTH. , #6 ) ;
#46 = SURFACE_STYLE_FILL_AREA ( #90 ) ;
#47 = CARTESIAN_POINT ( 'NONE',  ( 110.0147892488423600, 65.15745182658619700, 0.0000000000000000000 ) ) ;
#48 = EDGE_CURVE ( 'NONE', #113, #105, #109, .T. ) ;
#49 = FILL_AREA_STYLE ('',( #18 ) ) ;
#50 = DIRECTION ( 'NONE',  ( -1.000000000000000000, 6.488933942079480100E-016, -0.0000000000000000000 ) ) ;
#51 = CLOSED_SHELL ( 'NONE', ( #142, #26, #67, #87, #100 ) ) ;
#52 = PLANE ( 'NONE',  #31 ) ;
#53 = ORIENTED_EDGE ( 'NONE', *, *, #75, .T. ) ;
#54 = STYLED_ITEM ( 'NONE', ( #63 ), #122 ) ;
#55 = EDGE_CURVE ( 'NONE', #101, #151, #133, .T. ) ;
#56 = ORIENTED_EDGE ( 'NONE', *, *, #85, .T. ) ;
#57 = AXIS2_PLACEMENT_3D ( 'NONE', #47, #36, #59 ) ;
#58 =( GEOMETRIC_REPRESENTATION_CONTEXT ( 3 ) GLOBAL_UNCERTAINTY_ASSIGNED_CONTEXT ( ( #82 ) ) GLOBAL_UNIT_ASSIGNED_CONTEXT ( ( #131, #4, #148 ) ) REPRESENTATION_CONTEXT ( 'NONE', 'WORKASPACE' ) );
#59 = DIRECTION ( 'NONE',  ( -6.938893903907224400E-016, -1.000000000000000000, 0.0000000000000000000 ) ) ;
#60 = DIRECTION ( 'NONE',  ( 6.488933942079480100E-016, 1.000000000000000000, 0.0000000000000000000 ) ) ;
#61 =( GEOMETRIC_REPRESENTATION_CONTEXT ( 3 ) GLOBAL_UNCERTAINTY_ASSIGNED_CONTEXT ( ( #140 ) ) GLOBAL_UNIT_ASSIGNED_CONTEXT ( ( #132, #156, #80 ) ) REPRESENTATION_CONTEXT ( 'NONE', 'WORKASPACE' ) );
#62 = CYLINDRICAL_SURFACE ( 'NONE', #57, 20.00000000000001100 ) ;
#63 = PRESENTATION_STYLE_ASSIGNMENT (( #45 ) ) ;
#64 = AXIS2_PLACEMENT_3D ( 'NONE', #110, #72, #35 ) ;
#65 = MANIFOLD_SOLID_BREP ( 'Ðý×ª1', #51 ) ;
#66 = FACE_OUTER_BOUND ( 'NONE', #38, .T. ) ;
#67 = ADVANCED_FACE ( 'NONE', ( #39 ), #86, .F. ) ;
#68 = STYLED_ITEM ( 'NONE', ( #128 ), #65 ) ;
#69 = DIRECTION ( 'NONE',  ( -6.938893903907227400E-016, -1.000000000000000000, 0.0000000000000000000 ) ) ;
#70 = DIRECTION ( 'NONE',  ( -1.000000000000000000, 6.488933942079480100E-016, -0.0000000000000000000 ) ) ;
#71 = ORIENTED_EDGE ( 'NONE', *, *, #48, .F. ) ;
#72 = DIRECTION ( 'NONE',  ( -1.000000000000000000, 6.488933942079480100E-016, -0.0000000000000000000 ) ) ;
#73 = CARTESIAN_POINT ( 'NONE',  ( 149.9754472601862600, 65.15745182658621100, 0.0000000000000000000 ) ) ;
#74 = ORIENTED_EDGE ( 'NONE', *, *, #55, .T. ) ;
#75 = EDGE_CURVE ( 'NONE', #101, #138, #153, .T. ) ;
#76 = FACE_OUTER_BOUND ( 'NONE', #12, .T. ) ;
#77 = ORIENTED_EDGE ( 'NONE', *, *, #114, .T. ) ;
#78 = ORIENTED_EDGE ( 'NONE', *, *, #121, .F. ) ;
#79 = DIRECTION ( 'NONE',  ( 0.0000000000000000000, 0.0000000000000000000, 1.000000000000000000 ) ) ;
#80 =( NAMED_UNIT ( * ) SI_UNIT ( $, .STERADIAN. ) SOLID_ANGLE_UNIT ( ) );
#81 = EDGE_LOOP ( 'NONE', ( #77, #74, #166, #71 ) ) ;
#82 = UNCERTAINTY_MEASURE_WITH_UNIT (LENGTH_MEASURE( 1.000000000000000100E-005 ), #131, 'distance_accuracy_value', 'NONE');
#83 = AXIS2_PLACEMENT_3D ( 'NONE', #73, #135, #162 ) ;
#84 = CARTESIAN_POINT ( 'NONE',  ( 114.9754472601862000, 45.15745182658619000, 0.0000000000000000000 ) ) ;
#85 = EDGE_CURVE ( 'NONE', #113, #138, #10, .T. ) ;
#86 = SPHERICAL_SURFACE ( 'NONE', #129, 32.50000000000001400 ) ;
#87 = ADVANCED_FACE ( 'NONE', ( #66 ), #62, .T. ) ;
#88 = EDGE_LOOP ( 'NONE', ( #11, #3 ) ) ;
#89 = DIRECTION ( 'NONE',  ( -6.938893903907227400E-016, -1.000000000000000000, 0.0000000000000000000 ) ) ;
#90 = FILL_AREA_STYLE ('',( #44 ) ) ;
#91 = DIRECTION ( 'NONE',  ( 1.000000000000000000, -6.488933942079480100E-016, 0.0000000000000000000 ) ) ;
#92 = DIRECTION ( 'NONE',  ( 1.000000000000000000, 0.0000000000000000000, 0.0000000000000000000 ) ) ;
#93 = CARTESIAN_POINT ( 'NONE',  ( 124.3580703452872300, 85.15745182658621100, 2.449293598294703400E-015 ) ) ;
#94 = DIRECTION ( 'NONE',  ( -1.000000000000000000, 6.488933942079480100E-016, -0.0000000000000000000 ) ) ;
#95 = CYLINDRICAL_SURFACE ( 'NONE', #64, 20.00000000000001100 ) ;
#96 = FACE_OUTER_BOUND ( 'NONE', #81, .T. ) ;
#97 = ORIENTED_EDGE ( 'NONE', *, *, #85, .F. ) ;
#98 = AXIS2_PLACEMENT_3D ( 'NONE', #134, #29, #92 ) ;
#99 = AXIS2_PLACEMENT_3D ( 'NONE', #17, #118, #89 ) ;
#100 = ADVANCED_FACE ( 'NONE', ( #126 ), #52, .F. ) ;
#101 = VERTEX_POINT ( 'NONE', #93 ) ;
#102 = CARTESIAN_POINT ( 'NONE',  ( 149.9754472601862600, 65.15745182658621100, 0.0000000000000000000 ) ) ;
#103 = PRODUCT_CONTEXT ( 'NONE', #160, 'mechanical' ) ;
#104 = SURFACE_SIDE_STYLE ('',( #46 ) ) ;
#105 = VERTEX_POINT ( 'NONE', #84 ) ;
#106 = CARTESIAN_POINT ( 'NONE',  ( 114.9754472601862300, 85.15745182658619700, 2.449293598294710100E-015 ) ) ;
#107 = APPLICATION_CONTEXT ( 'automotive_design' ) ;
#108 = DIRECTION ( 'NONE',  ( 0.0000000000000000000, -1.000000000000000000, -1.224646799147353500E-016 ) ) ;
#109 = LINE ( 'NONE', #157, #43 ) ;
#110 = CARTESIAN_POINT ( 'NONE',  ( 110.0147892488423600, 65.15745182658619700, 0.0000000000000000000 ) ) ;
#111 =( GEOMETRIC_REPRESENTATION_CONTEXT ( 3 ) GLOBAL_UNCERTAINTY_ASSIGNED_CONTEXT ( ( #152 ) ) GLOBAL_UNIT_ASSIGNED_CONTEXT ( ( #5, #149, #1 ) ) REPRESENTATION_CONTEXT ( 'NONE', 'WORKASPACE' ) );
#112 = SURFACE_STYLE_FILL_AREA ( #49 ) ;
#113 = VERTEX_POINT ( 'NONE', #136 ) ;
#114 = EDGE_CURVE ( 'NONE', #113, #101, #37, .T. ) ;
#115 = PRODUCT_DEFINITION_CONTEXT ( 'detailed design', #107, 'design' ) ;
#116 = PRODUCT_DEFINITION ( 'Î´Öª', '', #9, #115 ) ;
#117 = CARTESIAN_POINT ( 'NONE',  ( 149.9754472601862600, 65.15745182658621100, 0.0000000000000000000 ) ) ;
#118 = DIRECTION ( 'NONE',  ( -1.000000000000000000, 6.488933942079480100E-016, -0.0000000000000000000 ) ) ;
#119 = SURFACE_STYLE_USAGE ( .BOTH. , #104 ) ;
#120 = DIRECTION ( 'NONE',  ( -6.938893903907222500E-016, -1.000000000000000000, 0.0000000000000000000 ) ) ;
#121 = EDGE_CURVE ( 'NONE', #101, #113, #127, .T. ) ;
#122 = ADVANCED_BREP_SHAPE_REPRESENTATION ( '120165', ( #65, #98 ), #111 ) ;
#123 = CARTESIAN_POINT ( 'NONE',  ( 124.3580703452872000, 65.15745182658618300, 0.0000000000000000000 ) ) ;
#124 = PRODUCT_RELATED_PRODUCT_CATEGORY ( 'part', '', ( #25 ) ) ;
#125 = EDGE_LOOP ( 'NONE', ( #143, #23, #56 ) ) ;
#126 = FACE_OUTER_BOUND ( 'NONE', #88, .T. ) ;
#127 = CIRCLE ( 'NONE', #164, 20.00000000000001800 ) ;
#128 = PRESENTATION_STYLE_ASSIGNMENT (( #119 ) ) ;
#129 = AXIS2_PLACEMENT_3D ( 'NONE', #117, #79, #147 ) ;
#130 = DIRECTION ( 'NONE',  ( -1.000000000000000000, 6.488933942079480100E-016, -0.0000000000000000000 ) ) ;
#131 =( LENGTH_UNIT ( ) NAMED_UNIT ( * ) SI_UNIT ( .MILLI., .METRE. ) );
#132 =( LENGTH_UNIT ( ) NAMED_UNIT ( * ) SI_UNIT ( .MILLI., .METRE. ) );
#133 = LINE ( 'NONE', #144, #34 ) ;
#134 = CARTESIAN_POINT ( 'NONE',  ( 0.0000000000000000000, 0.0000000000000000000, 0.0000000000000000000 ) ) ;
#135 = DIRECTION ( 'NONE',  ( 0.0000000000000000000, -0.0000000000000000000, -1.000000000000000000 ) ) ;
#136 = CARTESIAN_POINT ( 'NONE',  ( 124.3580703452872000, 45.15745182658620400, 0.0000000000000000000 ) ) ;
#137 = CARTESIAN_POINT ( 'NONE',  ( 114.9754472601862300, 65.15745182658619700, 0.0000000000000000000 ) ) ;
#138 = VERTEX_POINT ( 'NONE', #159 ) ;
#139 = AXIS2_PLACEMENT_3D ( 'NONE', #20, #50, #7 ) ;
#140 = UNCERTAINTY_MEASURE_WITH_UNIT (LENGTH_MEASURE( 1.000000000000000100E-005 ), #132, 'distance_accuracy_value', 'NONE');
#141 = ORIENTED_EDGE ( 'NONE', *, *, #146, .F. ) ;
#142 = ADVANCED_FACE ( 'NONE', ( #96 ), #95, .T. ) ;
#143 = ORIENTED_EDGE ( 'NONE', *, *, #75, .F. ) ;
#144 = CARTESIAN_POINT ( 'NONE',  ( 110.0147892488423800, 85.15745182658621100, 2.449293598294708100E-015 ) ) ;
#145 = CARTESIAN_POINT ( 'NONE',  ( 114.9754472601862100, 65.15745182658619700, 0.0000000000000000000 ) ) ;
#146 = EDGE_CURVE ( 'NONE', #151, #105, #28, .T. ) ;
#147 = DIRECTION ( 'NONE',  ( -8.540177112501200400E-016, -1.000000000000000000, 0.0000000000000000000 ) ) ;
#148 =( NAMED_UNIT ( * ) SI_UNIT ( $, .STERADIAN. ) SOLID_ANGLE_UNIT ( ) );
#149 =( NAMED_UNIT ( * ) PLANE_ANGLE_UNIT ( ) SI_UNIT ( $, .RADIAN. ) );
#150 = ORIENTED_EDGE ( 'NONE', *, *, #121, .T. ) ;
#151 = VERTEX_POINT ( 'NONE', #106 ) ;
#152 = UNCERTAINTY_MEASURE_WITH_UNIT (LENGTH_MEASURE( 1.000000000000000100E-005 ), #5, 'distance_accuracy_value', 'NONE');
#153 = CIRCLE ( 'NONE', #155, 32.50000000000001400 ) ;
#154 = SPHERICAL_SURFACE ( 'NONE', #42, 32.50000000000001400 ) ;
#155 = AXIS2_PLACEMENT_3D ( 'NONE', #161, #19, #108 ) ;
#156 =( NAMED_UNIT ( * ) PLANE_ANGLE_UNIT ( ) SI_UNIT ( $, .RADIAN. ) );
#157 = CARTESIAN_POINT ( 'NONE',  ( 110.0147892488423500, 45.15745182658618300, 0.0000000000000000000 ) ) ;
#158 = APPLICATION_PROTOCOL_DEFINITION ( 'draft international standard', 'automotive_design', 1998, #107 ) ;
#159 = CARTESIAN_POINT ( 'NONE',  ( 117.4754472601862300, 65.15745182658622500, 0.0000000000000000000 ) ) ;
#160 = APPLICATION_CONTEXT ( 'automotive_design' ) ;
#161 = CARTESIAN_POINT ( 'NONE',  ( 149.9754472601862600, 65.15745182658621100, 0.0000000000000000000 ) ) ;
#162 = DIRECTION ( 'NONE',  ( -1.000000000000000000, 0.0000000000000000000, 0.0000000000000000000 ) ) ;
#163 = SHAPE_DEFINITION_REPRESENTATION ( #40, #122 ) ;
#164 = AXIS2_PLACEMENT_3D ( 'NONE', #123, #94, #120 ) ;
#165 = COLOUR_RGB ( '',1.000000000000000000, 1.000000000000000000, 1.000000000000000000 ) ;
#166 = ORIENTED_EDGE ( 'NONE', *, *, #2, .F. ) ;
ENDSEC;
END-ISO-10303-21;
