ISO-10303-21;
HEADER;
FILE_DESCRIPTION (( 'STEP AP214' ),
    '1' );
FILE_NAME ('120259.STEP',
    '2019-06-25T02:19:37',
    ( '' ),
    ( '' ),
    'SwSTEP 2.0',
    'SolidWorks 2016',
    '' );
FILE_SCHEMA (( 'AUTOMOTIVE_DESIGN' ));
ENDSEC;

DATA;
#1 = DIRECTION ( 'NONE',  ( 0.0000000000000000000, -1.000000000000000000, 0.0000000000000000000 ) ) ;
#2 = CARTESIAN_POINT ( 'NONE',  ( 63.00370850148247100, 28.47759563463748800, 0.0000000000000000000 ) ) ;
#3 = CARTESIAN_POINT ( 'NONE',  ( 50.80780755075317500, 34.82759563463749000, 7.776507174585694100E-016 ) ) ;
#4 = CYLINDRICAL_SURFACE ( 'NONE', #30, 6.350000000000005000 ) ;
#5 = DIRECTION ( 'NONE',  ( 0.0000000000000000000, 0.0000000000000000000, 1.000000000000000000 ) ) ;
#6 = ORIENTED_EDGE ( 'NONE', *, *, #123, .T. ) ;
#7 = DIRECTION ( 'NONE',  ( 0.0000000000000000000, 0.0000000000000000000, -1.000000000000000000 ) ) ;
#8 = CARTESIAN_POINT ( 'NONE',  ( 63.00370850148247100, 28.47759563463748800, 0.0000000000000000000 ) ) ;
#9 = FILL_AREA_STYLE ('',( #22 ) ) ;
#10 = DIRECTION ( 'NONE',  ( 1.000000000000000000, 0.0000000000000000000, 0.0000000000000000000 ) ) ;
#11 = SPHERICAL_SURFACE ( 'NONE', #43, 13.74999999999999100 ) ;
#12 = PRODUCT_CONTEXT ( 'NONE', #173, 'mechanical' ) ;
#13 = PRESENTATION_LAYER_ASSIGNMENT (  '', '', ( #46 ) ) ;
#14 = SPHERICAL_SURFACE ( 'NONE', #137, 13.74999999999999100 ) ;
#15 = EDGE_LOOP ( 'NONE', ( #21, #184, #97, #51 ) ) ;
#16 = CARTESIAN_POINT ( 'NONE',  ( 49.25370850148247800, 28.47759563463748800, 0.0000000000000000000 ) ) ;
#17 =( GEOMETRIC_REPRESENTATION_CONTEXT ( 3 ) GLOBAL_UNCERTAINTY_ASSIGNED_CONTEXT ( ( #120 ) ) GLOBAL_UNIT_ASSIGNED_CONTEXT ( ( #48, #149, #78 ) ) REPRESENTATION_CONTEXT ( 'NONE', 'WORKASPACE' ) );
#18 = CIRCLE ( 'NONE', #145, 6.350000000000008500 ) ;
#19 = SURFACE_SIDE_STYLE ('',( #144 ) ) ;
#20 = CARTESIAN_POINT ( 'NONE',  ( 50.80780755075317500, 28.47759563463748100, -6.350000000000007600 ) ) ;
#21 = ORIENTED_EDGE ( 'NONE', *, *, #135, .F. ) ;
#22 = FILL_AREA_STYLE_COLOUR ( '', #159 ) ;
#23 = DIRECTION ( 'NONE',  ( -1.000000000000000000, -0.0000000000000000000, -0.0000000000000000000 ) ) ;
#24 = DIRECTION ( 'NONE',  ( 0.0000000000000000000, 0.0000000000000000000, 1.000000000000000000 ) ) ;
#25 = DIRECTION ( 'NONE',  ( -1.000000000000000000, 0.0000000000000000000, 0.0000000000000000000 ) ) ;
#26 = VERTEX_POINT ( 'NONE', #3 ) ;
#27 = SURFACE_STYLE_USAGE ( .BOTH. , #101 ) ;
#28 = ORIENTED_EDGE ( 'NONE', *, *, #165, .T. ) ;
#29 = AXIS2_PLACEMENT_3D ( 'NONE', #37, #104, #10 ) ;
#30 = AXIS2_PLACEMENT_3D ( 'NONE', #50, #79, #136 ) ;
#31 = VERTEX_POINT ( 'NONE', #63 ) ;
#32 = CARTESIAN_POINT ( 'NONE',  ( 47.75370850148247100, 28.47759563463748100, 6.350000000000001400 ) ) ;
#33 = SURFACE_STYLE_USAGE ( .BOTH. , #19 ) ;
#34 = DIRECTION ( 'NONE',  ( 0.0000000000000000000, 0.0000000000000000000, 1.000000000000000000 ) ) ;
#35 = VERTEX_POINT ( 'NONE', #32 ) ;
#36 = PRODUCT_RELATED_PRODUCT_CATEGORY ( 'part', '', ( #150 ) ) ;
#37 = CARTESIAN_POINT ( 'NONE',  ( 0.0000000000000000000, 0.0000000000000000000, 0.0000000000000000000 ) ) ;
#38 = DIRECTION ( 'NONE',  ( 0.0000000000000000000, 0.0000000000000000000, -1.000000000000000000 ) ) ;
#39 = EDGE_CURVE ( 'NONE', #90, #107, #91, .T. ) ;
#40 = ORIENTED_EDGE ( 'NONE', *, *, #73, .T. ) ;
#41 =( LENGTH_UNIT ( ) NAMED_UNIT ( * ) SI_UNIT ( .MILLI., .METRE. ) );
#42 =( NAMED_UNIT ( * ) PLANE_ANGLE_UNIT ( ) SI_UNIT ( $, .RADIAN. ) );
#43 = AXIS2_PLACEMENT_3D ( 'NONE', #2, #130, #1 ) ;
#44 = SURFACE_STYLE_FILL_AREA ( #9 ) ;
#45 = ADVANCED_FACE ( 'NONE', ( #160 ), #11, .F. ) ;
#46 = STYLED_ITEM ( 'NONE', ( #126 ), #71 ) ;
#47 = VERTEX_POINT ( 'NONE', #16 ) ;
#48 =( LENGTH_UNIT ( ) NAMED_UNIT ( * ) SI_UNIT ( .MILLI., .METRE. ) );
#49 = CARTESIAN_POINT ( 'NONE',  ( 50.80780755075317500, 28.47759563463748100, 0.0000000000000000000 ) ) ;
#50 = CARTESIAN_POINT ( 'NONE',  ( 44.78209190302423800, 28.47759563463748100, 0.0000000000000000000 ) ) ;
#51 = ORIENTED_EDGE ( 'NONE', *, *, #103, .T. ) ;
#52 = ORIENTED_EDGE ( 'NONE', *, *, #60, .F. ) ;
#53 = DIRECTION ( 'NONE',  ( -1.000000000000000000, -0.0000000000000000000, -0.0000000000000000000 ) ) ;
#54 = CIRCLE ( 'NONE', #132, 6.350000000000001400 ) ;
#55 = DIRECTION ( 'NONE',  ( -1.000000000000000000, -0.0000000000000000000, -0.0000000000000000000 ) ) ;
#56 = ORIENTED_EDGE ( 'NONE', *, *, #60, .T. ) ;
#57 = UNCERTAINTY_MEASURE_WITH_UNIT (LENGTH_MEASURE( 1.000000000000000100E-005 ), #181, 'distance_accuracy_value', 'NONE');
#58 = CIRCLE ( 'NONE', #161, 6.350000000000008500 ) ;
#59 = AXIS2_PLACEMENT_3D ( 'NONE', #179, #167, #100 ) ;
#60 = EDGE_CURVE ( 'NONE', #90, #154, #18, .T. ) ;
#61 = PRODUCT_DEFINITION_CONTEXT ( 'detailed design', #86, 'design' ) ;
#62 = CIRCLE ( 'NONE', #98, 13.74999999999999100 ) ;
#63 = CARTESIAN_POINT ( 'NONE',  ( 50.80780755075317500, 28.47759563463748100, 6.350000000000007600 ) ) ;
#64 = CARTESIAN_POINT ( 'NONE',  ( 50.80780755075317500, 28.47759563463748100, 0.0000000000000000000 ) ) ;
#65 = ORIENTED_EDGE ( 'NONE', *, *, #77, .T. ) ;
#66 = CARTESIAN_POINT ( 'NONE',  ( 47.75370850148247100, 28.47759563463748100, 0.0000000000000000000 ) ) ;
#67 = CARTESIAN_POINT ( 'NONE',  ( 44.78209190302423800, 28.47759563463748100, 6.350000000000005000 ) ) ;
#68 = DIRECTION ( 'NONE',  ( -1.000000000000000000, -0.0000000000000000000, -0.0000000000000000000 ) ) ;
#69 = AXIS2_PLACEMENT_3D ( 'NONE', #8, #125, #180 ) ;
#70 =( NAMED_UNIT ( * ) PLANE_ANGLE_UNIT ( ) SI_UNIT ( $, .RADIAN. ) );
#71 = MANIFOLD_SOLID_BREP ( 'Ðý×ª1', #108 ) ;
#72 = CIRCLE ( 'NONE', #129, 6.350000000000001400 ) ;
#73 = EDGE_CURVE ( 'NONE', #26, #90, #157, .T. ) ;
#74 = PRESENTATION_LAYER_ASSIGNMENT (  '', '', ( #163 ) ) ;
#75 = ORIENTED_EDGE ( 'NONE', *, *, #156, .F. ) ;
#76 = ORIENTED_EDGE ( 'NONE', *, *, #135, .T. ) ;
#77 = EDGE_CURVE ( 'NONE', #154, #31, #117, .T. ) ;
#78 =( NAMED_UNIT ( * ) SI_UNIT ( $, .STERADIAN. ) SOLID_ANGLE_UNIT ( ) );
#79 = DIRECTION ( 'NONE',  ( -1.000000000000000000, -0.0000000000000000000, -0.0000000000000000000 ) ) ;
#80 = CARTESIAN_POINT ( 'NONE',  ( 50.80780755075317500, 28.47759563463748100, 0.0000000000000000000 ) ) ;
#81 = DIRECTION ( 'NONE',  ( 1.000000000000000000, 0.0000000000000000000, 0.0000000000000000000 ) ) ;
#82 = ORIENTED_EDGE ( 'NONE', *, *, #158, .T. ) ;
#83 = MECHANICAL_DESIGN_GEOMETRIC_PRESENTATION_REPRESENTATION (  '', ( #163 ), #166 ) ;
#84 = DIRECTION ( 'NONE',  ( 0.0000000000000000000, -1.000000000000000000, 0.0000000000000000000 ) ) ;
#85 = DIRECTION ( 'NONE',  ( -1.000000000000000000, -0.0000000000000000000, -0.0000000000000000000 ) ) ;
#86 = APPLICATION_CONTEXT ( 'automotive_design' ) ;
#87 = CARTESIAN_POINT ( 'NONE',  ( 47.75370850148247100, 28.47759563463748100, 0.0000000000000000000 ) ) ;
#88 = DIRECTION ( 'NONE',  ( 0.0000000000000000000, 0.0000000000000000000, 1.000000000000000000 ) ) ;
#89 = AXIS2_PLACEMENT_3D ( 'NONE', #49, #85, #151 ) ;
#90 = VERTEX_POINT ( 'NONE', #20 ) ;
#91 = LINE ( 'NONE', #95, #176 ) ;
#92 = ORIENTED_EDGE ( 'NONE', *, *, #103, .F. ) ;
#93 = DIRECTION ( 'NONE',  ( -1.000000000000000000, -0.0000000000000000000, -0.0000000000000000000 ) ) ;
#94 =( GEOMETRIC_REPRESENTATION_CONTEXT ( 3 ) GLOBAL_UNCERTAINTY_ASSIGNED_CONTEXT ( ( #183 ) ) GLOBAL_UNIT_ASSIGNED_CONTEXT ( ( #41, #42, #182 ) ) REPRESENTATION_CONTEXT ( 'NONE', 'WORKASPACE' ) );
#95 = CARTESIAN_POINT ( 'NONE',  ( 44.78209190302423800, 28.47759563463748100, -6.350000000000005000 ) ) ;
#96 = ORIENTED_EDGE ( 'NONE', *, *, #123, .F. ) ;
#97 = ORIENTED_EDGE ( 'NONE', *, *, #77, .F. ) ;
#98 = AXIS2_PLACEMENT_3D ( 'NONE', #177, #38, #25 ) ;
#99 = CARTESIAN_POINT ( 'NONE',  ( 44.78209190302423800, 28.47759563463748100, 0.0000000000000000000 ) ) ;
#100 = DIRECTION ( 'NONE',  ( 0.0000000000000000000, 0.0000000000000000000, 1.000000000000000000 ) ) ;
#101 = SURFACE_SIDE_STYLE ('',( #44 ) ) ;
#102 = ORIENTED_EDGE ( 'NONE', *, *, #156, .T. ) ;
#103 = EDGE_CURVE ( 'NONE', #154, #47, #62, .T. ) ;
#104 = DIRECTION ( 'NONE',  ( 0.0000000000000000000, 0.0000000000000000000, 1.000000000000000000 ) ) ;
#105 = FACE_OUTER_BOUND ( 'NONE', #134, .T. ) ;
#106 = ADVANCED_FACE ( 'NONE', ( #138 ), #122, .T. ) ;
#107 = VERTEX_POINT ( 'NONE', #153 ) ;
#108 = CLOSED_SHELL ( 'NONE', ( #109, #45, #143, #106, #146 ) ) ;
#109 = ADVANCED_FACE ( 'NONE', ( #105 ), #4, .T. ) ;
#110 = ORIENTED_EDGE ( 'NONE', *, *, #39, .T. ) ;
#111 = CIRCLE ( 'NONE', #69, 13.74999999999999100 ) ;
#112 = CARTESIAN_POINT ( 'NONE',  ( 63.00370850148247100, 28.47759563463748800, 0.0000000000000000000 ) ) ;
#113 = CARTESIAN_POINT ( 'NONE',  ( 50.80780755075317500, 22.12759563463748000, 0.0000000000000000000 ) ) ;
#114 = ADVANCED_BREP_SHAPE_REPRESENTATION ( '120259', ( #71, #29 ), #94 ) ;
#115 = DIRECTION ( 'NONE',  ( -1.000000000000000000, -0.0000000000000000000, -0.0000000000000000000 ) ) ;
#116 = APPLICATION_PROTOCOL_DEFINITION ( 'draft international standard', 'automotive_design', 1998, #86 ) ;
#117 = CIRCLE ( 'NONE', #59, 6.350000000000008500 ) ;
#118 = EDGE_LOOP ( 'NONE', ( #174, #56, #65, #6, #75 ) ) ;
#119 = ORIENTED_EDGE ( 'NONE', *, *, #165, .F. ) ;
#120 = UNCERTAINTY_MEASURE_WITH_UNIT (LENGTH_MEASURE( 1.000000000000000100E-005 ), #48, 'distance_accuracy_value', 'NONE');
#121 = PRESENTATION_STYLE_ASSIGNMENT (( #27 ) ) ;
#122 = CYLINDRICAL_SURFACE ( 'NONE', #133, 6.350000000000005000 ) ;
#123 = EDGE_CURVE ( 'NONE', #31, #35, #142, .T. ) ;
#124 = DIRECTION ( 'NONE',  ( 0.0000000000000000000, 0.0000000000000000000, 1.000000000000000000 ) ) ;
#125 = DIRECTION ( 'NONE',  ( 0.0000000000000000000, -1.224646799147353200E-016, 1.000000000000000000 ) ) ;
#126 = PRESENTATION_STYLE_ASSIGNMENT (( #33 ) ) ;
#127 = MECHANICAL_DESIGN_GEOMETRIC_PRESENTATION_REPRESENTATION (  '', ( #46 ), #17 ) ;
#128 = FACE_OUTER_BOUND ( 'NONE', #15, .T. ) ;
#129 = AXIS2_PLACEMENT_3D ( 'NONE', #87, #55, #88 ) ;
#130 = DIRECTION ( 'NONE',  ( 0.0000000000000000000, 0.0000000000000000000, 1.000000000000000000 ) ) ;
#131 = DIRECTION ( 'NONE',  ( -1.000000000000000000, -0.0000000000000000000, -0.0000000000000000000 ) ) ;
#132 = AXIS2_PLACEMENT_3D ( 'NONE', #66, #53, #24 ) ;
#133 = AXIS2_PLACEMENT_3D ( 'NONE', #99, #115, #170 ) ;
#134 = EDGE_LOOP ( 'NONE', ( #40, #110, #119, #96, #82 ) ) ;
#135 = EDGE_CURVE ( 'NONE', #26, #47, #111, .T. ) ;
#136 = DIRECTION ( 'NONE',  ( 0.0000000000000000000, 0.0000000000000000000, 1.000000000000000000 ) ) ;
#137 = AXIS2_PLACEMENT_3D ( 'NONE', #112, #5, #84 ) ;
#138 = FACE_OUTER_BOUND ( 'NONE', #118, .T. ) ;
#139 = EDGE_LOOP ( 'NONE', ( #172, #76, #92, #52 ) ) ;
#140 =( NAMED_UNIT ( * ) SI_UNIT ( $, .STERADIAN. ) SOLID_ANGLE_UNIT ( ) );
#141 = SHAPE_DEFINITION_REPRESENTATION ( #147, #114 ) ;
#142 = LINE ( 'NONE', #67, #186 ) ;
#143 = ADVANCED_FACE ( 'NONE', ( #128 ), #14, .F. ) ;
#144 = SURFACE_STYLE_FILL_AREA ( #164 ) ;
#145 = AXIS2_PLACEMENT_3D ( 'NONE', #64, #131, #34 ) ;
#146 = ADVANCED_FACE ( 'NONE', ( #148 ), #168, .F. ) ;
#147 = PRODUCT_DEFINITION_SHAPE ( 'NONE', 'NONE',  #185 ) ;
#148 = FACE_OUTER_BOUND ( 'NONE', #171, .T. ) ;
#149 =( NAMED_UNIT ( * ) PLANE_ANGLE_UNIT ( ) SI_UNIT ( $, .RADIAN. ) );
#150 = PRODUCT ( '120259', '120259', '', ( #12 ) ) ;
#151 = DIRECTION ( 'NONE',  ( 0.0000000000000000000, 0.0000000000000000000, 1.000000000000000000 ) ) ;
#152 = AXIS2_PLACEMENT_3D ( 'NONE', #178, #81, #7 ) ;
#153 = CARTESIAN_POINT ( 'NONE',  ( 47.75370850148247100, 28.47759563463748100, -6.350000000000001400 ) ) ;
#154 = VERTEX_POINT ( 'NONE', #113 ) ;
#155 = APPLICATION_PROTOCOL_DEFINITION ( 'draft international standard', 'automotive_design', 1998, #173 ) ;
#156 = EDGE_CURVE ( 'NONE', #107, #35, #54, .T. ) ;
#157 = CIRCLE ( 'NONE', #89, 6.350000000000008500 ) ;
#158 = EDGE_CURVE ( 'NONE', #31, #26, #58, .T. ) ;
#159 = COLOUR_RGB ( '',1.000000000000000000, 1.000000000000000000, 1.000000000000000000 ) ;
#160 = FACE_OUTER_BOUND ( 'NONE', #139, .T. ) ;
#161 = AXIS2_PLACEMENT_3D ( 'NONE', #80, #23, #124 ) ;
#162 = COLOUR_RGB ( '',1.000000000000000000, 1.000000000000000000, 1.000000000000000000 ) ;
#163 = STYLED_ITEM ( 'NONE', ( #121 ), #114 ) ;
#164 = FILL_AREA_STYLE ('',( #175 ) ) ;
#165 = EDGE_CURVE ( 'NONE', #35, #107, #72, .T. ) ;
#166 =( GEOMETRIC_REPRESENTATION_CONTEXT ( 3 ) GLOBAL_UNCERTAINTY_ASSIGNED_CONTEXT ( ( #57 ) ) GLOBAL_UNIT_ASSIGNED_CONTEXT ( ( #181, #70, #140 ) ) REPRESENTATION_CONTEXT ( 'NONE', 'WORKASPACE' ) );
#167 = DIRECTION ( 'NONE',  ( -1.000000000000000000, -0.0000000000000000000, -0.0000000000000000000 ) ) ;
#168 = PLANE ( 'NONE',  #152 ) ;
#169 = PRODUCT_DEFINITION_FORMATION_WITH_SPECIFIED_SOURCE ( 'ÈÎºÎ', '', #150, .NOT_KNOWN. ) ;
#170 = DIRECTION ( 'NONE',  ( 0.0000000000000000000, 0.0000000000000000000, 1.000000000000000000 ) ) ;
#171 = EDGE_LOOP ( 'NONE', ( #28, #102 ) ) ;
#172 = ORIENTED_EDGE ( 'NONE', *, *, #73, .F. ) ;
#173 = APPLICATION_CONTEXT ( 'automotive_design' ) ;
#174 = ORIENTED_EDGE ( 'NONE', *, *, #39, .F. ) ;
#175 = FILL_AREA_STYLE_COLOUR ( '', #162 ) ;
#176 = VECTOR ( 'NONE', #93, 1000.000000000000000 ) ;
#177 = CARTESIAN_POINT ( 'NONE',  ( 63.00370850148247100, 28.47759563463748800, 0.0000000000000000000 ) ) ;
#178 = CARTESIAN_POINT ( 'NONE',  ( 47.75370850148247100, 28.47759563463748100, 0.0000000000000000000 ) ) ;
#179 = CARTESIAN_POINT ( 'NONE',  ( 50.80780755075317500, 28.47759563463748100, 0.0000000000000000000 ) ) ;
#180 = DIRECTION ( 'NONE',  ( 0.0000000000000000000, -1.000000000000000000, -1.224646799147353200E-016 ) ) ;
#181 =( LENGTH_UNIT ( ) NAMED_UNIT ( * ) SI_UNIT ( .MILLI., .METRE. ) );
#182 =( NAMED_UNIT ( * ) SI_UNIT ( $, .STERADIAN. ) SOLID_ANGLE_UNIT ( ) );
#183 = UNCERTAINTY_MEASURE_WITH_UNIT (LENGTH_MEASURE( 1.000000000000000100E-005 ), #41, 'distance_accuracy_value', 'NONE');
#184 = ORIENTED_EDGE ( 'NONE', *, *, #158, .F. ) ;
#185 = PRODUCT_DEFINITION ( 'Î´Öª', '', #169, #61 ) ;
#186 = VECTOR ( 'NONE', #68, 1000.000000000000000 ) ;
ENDSEC;
END-ISO-10303-21;
