ISO-10303-21;
HEADER;
FILE_DESCRIPTION (( 'STEP AP214' ),
    '1' );
FILE_NAME ('GL7AL2-025-025.STEP',
    '2024-07-21T09:32:39',
    ( '' ),
    ( '' ),
    'SwSTEP 2.0',
    'SolidWorks 2022',
    '' );
FILE_SCHEMA (( 'AUTOMOTIVE_DESIGN' ));
ENDSEC;

DATA;
#1 = CARTESIAN_POINT ( 'NONE',  ( 0.000000000000000000, 0.000000000000000000, 3.549999999999995826 ) ) ;
#2 = FACE_OUTER_BOUND ( 'NONE', #318, .T. ) ;
#3 = LINE ( 'NONE', #7, #82 ) ;
#4 = PRESENTATION_LAYER_ASSIGNMENT (  '', '', ( #96 ) ) ;
#5 = DIRECTION ( 'NONE',  ( -1.000000000000000000, 0.000000000000000000, 0.000000000000000000 ) ) ;
#6 = EDGE_CURVE ( 'NONE', #195, #315, #286, .T. ) ;
#7 = CARTESIAN_POINT ( 'NONE',  ( 12.69999999999999929, 1.555301434917138433E-15, 3.750000000000000000 ) ) ;
#8 = CARTESIAN_POINT ( 'NONE',  ( 0.000000000000000000, 0.000000000000000000, -29.07000000000000028 ) ) ;
#9 = PRODUCT_DEFINITION ( 'Î´Öª', '', #151, #40 ) ;
#10 = TOROIDAL_SURFACE ( 'NONE', #253, 12.69999999999999929, 1.897222222222331389 ) ;
#11 = CIRCLE ( 'NONE', #63, 12.69999999999999929 ) ;
#12 = FACE_OUTER_BOUND ( 'NONE', #130, .T. ) ;
#13 = FILL_AREA_STYLE_COLOUR ( '', #302 ) ;
#14 = FILL_AREA_STYLE_COLOUR ( '', #19 ) ;
#15 = SURFACE_STYLE_USAGE ( .BOTH. , #121 ) ;
#16 = AXIS2_PLACEMENT_3D ( 'NONE', #190, #187, #317 ) ;
#17 = EDGE_CURVE ( 'NONE', #27, #315, #237, .T. ) ;
#18 = CARTESIAN_POINT ( 'NONE',  ( 0.000000000000000000, 0.000000000000000000, 3.750000000000000000 ) ) ;
#19 = COLOUR_RGB ( '',1.000000000000000000, 1.000000000000000000, 1.000000000000000000 ) ;
#20 = ORIENTED_EDGE ( 'NONE', *, *, #298, .F. ) ;
#21 = DIRECTION ( 'NONE',  ( -1.000000000000000000, 0.000000000000000000, 1.197432425832967915E-16 ) ) ;
#22 = VERTEX_POINT ( 'NONE', #241 ) ;
#23 = DIRECTION ( 'NONE',  ( -1.197432425832967915E-16, 0.000000000000000000, -1.000000000000000000 ) ) ;
#24 = UNCERTAINTY_MEASURE_WITH_UNIT (LENGTH_MEASURE( 1.000000000000000082E-05 ), #207, 'distance_accuracy_value', 'NONE');
#25 = ORIENTED_EDGE ( 'NONE', *, *, #144, .T. ) ;
#26 = DIRECTION ( 'NONE',  ( -1.197432425832967915E-16, 0.000000000000000000, -1.000000000000000000 ) ) ;
#27 = VERTEX_POINT ( 'NONE', #194 ) ;
#28 = CIRCLE ( 'NONE', #114, 12.69999999999999929 ) ;
#29 = DIRECTION ( 'NONE',  ( 1.000000000000000000, 0.000000000000000000, 0.000000000000000000 ) ) ;
#30 = ORIENTED_EDGE ( 'NONE', *, *, #148, .F. ) ;
#31 = DIRECTION ( 'NONE',  ( -1.000000000000000000, 0.000000000000000000, 1.041823145307888133E-16 ) ) ;
#32 = DIRECTION ( 'NONE',  ( -1.197432425832967915E-16, 0.000000000000000000, -1.000000000000000000 ) ) ;
#33 = DIRECTION ( 'NONE',  ( -1.197432425832967915E-16, -0.000000000000000000, -1.000000000000000000 ) ) ;
#34 =( GEOMETRIC_REPRESENTATION_CONTEXT ( 3 ) GLOBAL_UNCERTAINTY_ASSIGNED_CONTEXT ( ( #175 ) ) GLOBAL_UNIT_ASSIGNED_CONTEXT ( ( #235, #95, #290 ) ) REPRESENTATION_CONTEXT ( 'NONE', 'WORKASPACE' ) );
#35 = AXIS2_PLACEMENT_3D ( 'NONE', #265, #113, #53 ) ;
#36 = PRESENTATION_STYLE_ASSIGNMENT (( #15 ) ) ;
#37 = ADVANCED_FACE ( 'NONE', ( #215 ), #99, .T. ) ;
#38 = AXIS2_PLACEMENT_3D ( 'NONE', #268, #137, #29 ) ;
#39 = DIRECTION ( 'NONE',  ( 1.000000000000000000, 0.000000000000000000, -0.000000000000000000 ) ) ;
#40 = PRODUCT_DEFINITION_CONTEXT ( 'detailed design', #41, 'design' ) ;
#41 = APPLICATION_CONTEXT ( 'automotive_design' ) ;
#42 = PRODUCT_RELATED_PRODUCT_CATEGORY ( 'part', '', ( #188 ) ) ;
#43 = FACE_OUTER_BOUND ( 'NONE', #266, .T. ) ;
#44 = FACE_OUTER_BOUND ( 'NONE', #55, .T. ) ;
#45 = VERTEX_POINT ( 'NONE', #76 ) ;
#46 = SURFACE_STYLE_FILL_AREA ( #155 ) ;
#47 = AXIS2_PLACEMENT_3D ( 'NONE', #105, #110, #83 ) ;
#48 = ORIENTED_EDGE ( 'NONE', *, *, #148, .T. ) ;
#49 = DIRECTION ( 'NONE',  ( 1.000000000000000000, 0.000000000000000000, -1.365923996832131609E-16 ) ) ;
#50 = ORIENTED_EDGE ( 'NONE', *, *, #166, .F. ) ;
#51 = DIRECTION ( 'NONE',  ( -0.000000000000000000, -0.000000000000000000, 1.000000000000000000 ) ) ;
#52 = ORIENTED_EDGE ( 'NONE', *, *, #17, .F. ) ;
#53 = DIRECTION ( 'NONE',  ( -1.000000000000000000, -1.224646799147353454E-16, 0.000000000000000000 ) ) ;
#54 = AXIS2_PLACEMENT_3D ( 'NONE', #309, #229, #39 ) ;
#55 = EDGE_LOOP ( 'NONE', ( #92, #264, #287, #208 ) ) ;
#56 = CARTESIAN_POINT ( 'NONE',  ( -2.257585556312962519E-16, 0.000000000000000000, 3.761866934016801611 ) ) ;
#57 = DIRECTION ( 'NONE',  ( -1.000000000000000000, 0.000000000000000000, 1.079863471547465051E-16 ) ) ;
#58 = EDGE_CURVE ( 'NONE', #86, #45, #213, .T. ) ;
#59 = LINE ( 'NONE', #160, #100 ) ;
#60 = AXIS2_PLACEMENT_3D ( 'NONE', #85, #307, #282 ) ;
#61 = EDGE_CURVE ( 'NONE', #45, #239, #3, .T. ) ;
#62 = CARTESIAN_POINT ( 'NONE',  ( 12.48813306598319528, 1.529355218658254233E-15, 3.761866934016800279 ) ) ;
#63 = AXIS2_PLACEMENT_3D ( 'NONE', #263, #51, #73 ) ;
#64 = ADVANCED_FACE ( 'NONE', ( #98 ), #209, .T. ) ;
#65 = CARTESIAN_POINT ( 'NONE',  ( -12.69999999999999929, 0.000000000000000000, 3.750000000000000000 ) ) ;
#66 = ADVANCED_FACE ( 'NONE', ( #149 ), #128, .T. ) ;
#67 = CARTESIAN_POINT ( 'NONE',  ( 0.000000000000000000, 0.000000000000000000, 5.647222222222332277 ) ) ;
#68 = ORIENTED_EDGE ( 'NONE', *, *, #260, .T. ) ;
#69 = SPHERICAL_SURFACE ( 'NONE', #107, 35.07000000000000028 ) ;
#70 = ORIENTED_EDGE ( 'NONE', *, *, #170, .T. ) ;
#71 = ORIENTED_EDGE ( 'NONE', *, *, #116, .F. ) ;
#72 = CARTESIAN_POINT ( 'NONE',  ( 0.000000000000000000, 0.000000000000000000, 0.1999999999999970690 ) ) ;
#73 = DIRECTION ( 'NONE',  ( 1.000000000000000000, 0.000000000000000000, 0.000000000000000000 ) ) ;
#74 = ADVANCED_FACE ( 'NONE', ( #247 ), #133, .F. ) ;
#75 = CIRCLE ( 'NONE', #120, 35.07000000000000028 ) ;
#76 = CARTESIAN_POINT ( 'NONE',  ( 12.69999999999999929, 1.555301434917138433E-15, 3.549999999999994049 ) ) ;
#77 = CARTESIAN_POINT ( 'NONE',  ( -12.69999999999999929, 0.000000000000000000, 3.549999999999997602 ) ) ;
#78 = DIRECTION ( 'NONE',  ( 0.000000000000000000, -1.000000000000000000, 0.000000000000000000 ) ) ;
#79 = CIRCLE ( 'NONE', #60, 12.48813306598295192 ) ;
#80 = CIRCLE ( 'NONE', #16, 12.04821388316975295 ) ;
#81 = FACE_OUTER_BOUND ( 'NONE', #111, .T. ) ;
#82 = VECTOR ( 'NONE', #218, 1000.000000000000000 ) ;
#83 = DIRECTION ( 'NONE',  ( 1.000000000000000000, 0.000000000000000000, -1.041823145307908471E-16 ) ) ;
#84 = EDGE_LOOP ( 'NONE', ( #30, #156, #109 ) ) ;
#85 = CARTESIAN_POINT ( 'NONE',  ( -2.257585556315553927E-16, 0.000000000000000000, 3.761866934014637120 ) ) ;
#86 = VERTEX_POINT ( 'NONE', #278 ) ;
#87 = DIRECTION ( 'NONE',  ( 1.000000000000000000, 0.000000000000000000, 0.000000000000000000 ) ) ;
#88 = ORIENTED_EDGE ( 'NONE', *, *, #61, .F. ) ;
#89 = ADVANCED_FACE ( 'NONE', ( #43 ), #226, .T. ) ;
#90 = AXIS2_PLACEMENT_3D ( 'NONE', #72, #139, #240 ) ;
#91 = FACE_OUTER_BOUND ( 'NONE', #211, .T. ) ;
#92 = ORIENTED_EDGE ( 'NONE', *, *, #225, .F. ) ;
#93 = PRESENTATION_STYLE_ASSIGNMENT (( #152 ) ) ;
#94 = EDGE_CURVE ( 'NONE', #311, #45, #248, .T. ) ;
#95 =( NAMED_UNIT ( * ) PLANE_ANGLE_UNIT ( ) SI_UNIT ( $, .RADIAN. ) );
#96 = STYLED_ITEM ( 'NONE', ( #93 ), #167 ) ;
#97 = CARTESIAN_POINT ( 'NONE',  ( -12.50000000000000000, 1.543054966925665076E-15, 0.000000000000000000 ) ) ;
#98 = FACE_OUTER_BOUND ( 'NONE', #186, .T. ) ;
#99 = CONICAL_SURFACE ( 'NONE', #245, 12.48813306598319528, 0.7853981633974472798 ) ;
#100 = VECTOR ( 'NONE', #143, 999.9999999999998863 ) ;
#101 = CARTESIAN_POINT ( 'NONE',  ( 0.000000000000000000, 0.000000000000000000, 5.647222222222332277 ) ) ;
#102 = DIRECTION ( 'NONE',  ( -1.000000000000000000, -1.224646799147352961E-16, 0.000000000000000000 ) ) ;
#103 = AXIS2_PLACEMENT_3D ( 'NONE', #56, #23, #31 ) ;
#104 = EDGE_CURVE ( 'NONE', #205, #315, #271, .T. ) ;
#105 = CARTESIAN_POINT ( 'NONE',  ( -2.257585556315553927E-16, 0.000000000000000000, 3.761866934014637120 ) ) ;
#106 = ORIENTED_EDGE ( 'NONE', *, *, #131, .T. ) ;
#107 = AXIS2_PLACEMENT_3D ( 'NONE', #304, #125, #108 ) ;
#108 = DIRECTION ( 'NONE',  ( -1.000000000000000000, 0.000000000000000000, 9.892919737535256540E-17 ) ) ;
#109 = ORIENTED_EDGE ( 'NONE', *, *, #6, .F. ) ;
#110 = DIRECTION ( 'NONE',  ( 1.197432425832967915E-16, -0.000000000000000000, 1.000000000000000000 ) ) ;
#111 = EDGE_LOOP ( 'NONE', ( #25, #153, #134, #257 ) ) ;
#112 = ORIENTED_EDGE ( 'NONE', *, *, #131, .F. ) ;
#113 = DIRECTION ( 'NONE',  ( -1.224646799147353207E-16, 1.000000000000000000, 1.466431787491594470E-32 ) ) ;
#114 = AXIS2_PLACEMENT_3D ( 'NONE', #1, #26, #49 ) ;
#115 = ORIENTED_EDGE ( 'NONE', *, *, #251, .F. ) ;
#116 = EDGE_CURVE ( 'NONE', #86, #205, #79, .T. ) ;
#117 = CARTESIAN_POINT ( 'NONE',  ( 12.04821388316975295, 1.502417937702454094E-15, 3.865473918336065573 ) ) ;
#118 = CARTESIAN_POINT ( 'NONE',  ( -2.257585556312962519E-16, 0.000000000000000000, 3.761866934016801611 ) ) ;
#119 = FACE_OUTER_BOUND ( 'NONE', #138, .T. ) ;
#120 = AXIS2_PLACEMENT_3D ( 'NONE', #285, #206, #102 ) ;
#121 = SURFACE_SIDE_STYLE ('',( #277 ) ) ;
#122 = DIRECTION ( 'NONE',  ( 0.7071067811865466846, 8.659560562354924230E-17, -0.7071067811865483499 ) ) ;
#123 = DIRECTION ( 'NONE',  ( -0.000000000000000000, -0.000000000000000000, 1.000000000000000000 ) ) ;
#124 = AXIS2_PLACEMENT_3D ( 'NONE', #147, #202, #312 ) ;
#125 = DIRECTION ( 'NONE',  ( 0.000000000000000000, 1.000000000000000000, -0.000000000000000000 ) ) ;
#126 = ADVANCED_FACE ( 'NONE', ( #81 ), #10, .F. ) ;
#127 = VECTOR ( 'NONE', #122, 1000.000000000000000 ) ;
#128 = SPHERICAL_SURFACE ( 'NONE', #267, 35.07000000000000028 ) ;
#129 = DIRECTION ( 'NONE',  ( -0.000000000000000000, -0.000000000000000000, -1.000000000000000000 ) ) ;
#130 = EDGE_LOOP ( 'NONE', ( #52, #48, #115 ) ) ;
#131 = EDGE_CURVE ( 'NONE', #158, #233, #308, .T. ) ;
#132 = VECTOR ( 'NONE', #168, 1000.000000000000000 ) ;
#133 = PLANE ( 'NONE',  #54 ) ;
#134 = ORIENTED_EDGE ( 'NONE', *, *, #6, .T. ) ;
#135 = LINE ( 'NONE', #293, #182 ) ;
#136 = ORIENTED_EDGE ( 'NONE', *, *, #170, .F. ) ;
#137 = DIRECTION ( 'NONE',  ( -0.000000000000000000, -0.000000000000000000, -1.000000000000000000 ) ) ;
#138 = EDGE_LOOP ( 'NONE', ( #243, #230, #284, #262 ) ) ;
#139 = DIRECTION ( 'NONE',  ( -0.000000000000000000, -0.000000000000000000, 1.000000000000000000 ) ) ;
#140 = CIRCLE ( 'NONE', #38, 12.50000000000000000 ) ;
#141 = ORIENTED_EDGE ( 'NONE', *, *, #192, .T. ) ;
#142 = CARTESIAN_POINT ( 'NONE',  ( -12.48813306599270234, 0.000000000000000000, 3.761866934014638897 ) ) ;
#143 = DIRECTION ( 'NONE',  ( -0.7071067811865469066, 0.000000000000000000, -0.7071067811865482389 ) ) ;
#144 = EDGE_CURVE ( 'NONE', #205, #86, #162, .T. ) ;
#145 = AXIS2_PLACEMENT_3D ( 'NONE', #8, #78, #163 ) ;
#146 = APPLICATION_PROTOCOL_DEFINITION ( 'draft international standard', 'automotive_design', 1998, #41 ) ;
#147 = CARTESIAN_POINT ( 'NONE',  ( 0.000000000000000000, 0.000000000000000000, 3.549999999999995826 ) ) ;
#148 = EDGE_CURVE ( 'NONE', #27, #195, #75, .T. ) ;
#149 = FACE_OUTER_BOUND ( 'NONE', #84, .T. ) ;
#150 = AXIS2_PLACEMENT_3D ( 'NONE', #101, #227, #21 ) ;
#151 = PRODUCT_DEFINITION_FORMATION_WITH_SPECIFIED_SOURCE ( 'ÈÎºÎ', '', #188, .NOT_KNOWN. ) ;
#152 = SURFACE_STYLE_USAGE ( .BOTH. , #279 ) ;
#153 = ORIENTED_EDGE ( 'NONE', *, *, #225, .T. ) ;
#154 = ADVANCED_FACE ( 'NONE', ( #12 ), #69, .T. ) ;
#155 = FILL_AREA_STYLE ('',( #14 ) ) ;
#156 = ORIENTED_EDGE ( 'NONE', *, *, #17, .T. ) ;
#157 = CARTESIAN_POINT ( 'NONE',  ( 0.000000000000000000, 0.000000000000000000, 3.750000000000000000 ) ) ;
#158 = VERTEX_POINT ( 'NONE', #256 ) ;
#159 = ADVANCED_FACE ( 'NONE', ( #44 ), #295, .F. ) ;
#160 = CARTESIAN_POINT ( 'NONE',  ( -12.48813306598319528, 0.000000000000000000, 3.761866934016802499 ) ) ;
#161 = ORIENTED_EDGE ( 'NONE', *, *, #166, .T. ) ;
#162 = CIRCLE ( 'NONE', #47, 12.48813306598295192 ) ;
#163 = DIRECTION ( 'NONE',  ( 0.000000000000000000, 0.000000000000000000, -1.000000000000000000 ) ) ;
#164 = CARTESIAN_POINT ( 'NONE',  ( -12.04821388316975295, 0.000000000000000000, 3.865473918336068238 ) ) ;
#165 = CARTESIAN_POINT ( 'NONE',  ( 0.000000000000000000, 0.000000000000000000, 0.000000000000000000 ) ) ;
#166 = EDGE_CURVE ( 'NONE', #311, #22, #204, .T. ) ;
#167 = MANIFOLD_SOLID_BREP ( 'µ¹½Ç2', #181 ) ;
#168 = DIRECTION ( 'NONE',  ( -0.000000000000000000, -0.000000000000000000, -1.000000000000000000 ) ) ;
#169 = MECHANICAL_DESIGN_GEOMETRIC_PRESENTATION_REPRESENTATION (  '', ( #96 ), #34 ) ;
#170 = EDGE_CURVE ( 'NONE', #205, #311, #59, .T. ) ;
#171 = DIRECTION ( 'NONE',  ( -0.000000000000000000, -0.000000000000000000, -1.000000000000000000 ) ) ;
#172 = ADVANCED_BREP_SHAPE_REPRESENTATION ( 'GL7AL2-025-025', ( #167, #281 ), #228 ) ;
#173 = CONICAL_SURFACE ( 'NONE', #103, 12.48813306598319528, 0.7853981633974472798 ) ;
#174 = DIRECTION ( 'NONE',  ( -1.000000000000000000, 0.000000000000000000, 0.000000000000000000 ) ) ;
#175 = UNCERTAINTY_MEASURE_WITH_UNIT (LENGTH_MEASURE( 1.000000000000000082E-05 ), #235, 'distance_accuracy_value', 'NONE');
#176 = ORIENTED_EDGE ( 'NONE', *, *, #310, .F. ) ;
#177 = DIRECTION ( 'NONE',  ( 0.000000000000000000, 1.000000000000000000, -0.000000000000000000 ) ) ;
#178 = EDGE_LOOP ( 'NONE', ( #106, #68 ) ) ;
#179 = CARTESIAN_POINT ( 'NONE',  ( 0.000000000000000000, 0.000000000000000000, -29.07000000000000028 ) ) ;
#180 = EDGE_LOOP ( 'NONE', ( #289, #216, #70, #297 ) ) ;
#181 = CLOSED_SHELL ( 'NONE', ( #316, #272, #154, #126, #199, #89, #74, #159, #66, #64, #37 ) ) ;
#182 = VECTOR ( 'NONE', #296, 1000.000000000000000 ) ;
#183 = DIRECTION ( 'NONE',  ( -0.000000000000000000, -0.000000000000000000, -1.000000000000000000 ) ) ;
#184 = STYLED_ITEM ( 'NONE', ( #36 ), #172 ) ;
#185 = ORIENTED_EDGE ( 'NONE', *, *, #94, .T. ) ;
#186 = EDGE_LOOP ( 'NONE', ( #20, #112, #141, #176 ) ) ;
#187 = DIRECTION ( 'NONE',  ( -1.197432425832967915E-16, -0.000000000000000000, -1.000000000000000000 ) ) ;
#188 = PRODUCT ( 'GL7AL2-025-025', 'GL7AL2-025-025', '', ( #269 ) ) ;
#189 = CARTESIAN_POINT ( 'NONE',  ( 1.382722141535955685E-17, 0.000000000000000000, 3.865473918336066905 ) ) ;
#190 = CARTESIAN_POINT ( 'NONE',  ( 1.382722141535955685E-17, 0.000000000000000000, 3.865473918336066905 ) ) ;
#191 = AXIS2_PLACEMENT_3D ( 'NONE', #197, #201, #258 ) ;
#192 = EDGE_CURVE ( 'NONE', #158, #239, #222, .T. ) ;
#193 = CARTESIAN_POINT ( 'NONE',  ( 0.000000000000000000, 0.000000000000000000, 0.1999999999999970690 ) ) ;
#194 = CARTESIAN_POINT ( 'NONE',  ( 2.051977355091334265E-15, 0.000000000000000000, 5.999999999999998224 ) ) ;
#195 = VERTEX_POINT ( 'NONE', #117 ) ;
#196 = AXIS2_PLACEMENT_3D ( 'NONE', #193, #212, #261 ) ;
#197 = CARTESIAN_POINT ( 'NONE',  ( -12.69999999999999929, 0.000000000000000000, 5.647222222222334054 ) ) ;
#198 = DIRECTION ( 'NONE',  ( 1.000000000000000000, 0.000000000000000000, 0.000000000000000000 ) ) ;
#199 = ADVANCED_FACE ( 'NONE', ( #2 ), #214, .T. ) ;
#200 = AXIS2_PLACEMENT_3D ( 'NONE', #189, #33, #57 ) ;
#201 = DIRECTION ( 'NONE',  ( 0.000000000000000000, -1.000000000000000000, 0.000000000000000000 ) ) ;
#202 = DIRECTION ( 'NONE',  ( -1.197432425832967915E-16, 0.000000000000000000, -1.000000000000000000 ) ) ;
#203 = CIRCLE ( 'NONE', #35, 1.897222222222331389 ) ;
#204 = LINE ( 'NONE', #65, #132 ) ;
#205 = VERTEX_POINT ( 'NONE', #142 ) ;
#206 = DIRECTION ( 'NONE',  ( -1.224646799147353207E-16, 1.000000000000000000, 1.466431787491594470E-32 ) ) ;
#207 =( LENGTH_UNIT ( ) NAMED_UNIT ( * ) SI_UNIT ( .MILLI., .METRE. ) );
#208 = ORIENTED_EDGE ( 'NONE', *, *, #251, .T. ) ;
#209 = CONICAL_SURFACE ( 'NONE', #280, 12.69999999999999929, 0.7853981633974526089 ) ;
#210 = AXIS2_PLACEMENT_3D ( 'NONE', #157, #183, #5 ) ;
#211 = EDGE_LOOP ( 'NONE', ( #71, #236, #292, #136 ) ) ;
#212 = DIRECTION ( 'NONE',  ( -0.000000000000000000, -0.000000000000000000, 1.000000000000000000 ) ) ;
#213 = LINE ( 'NONE', #62, #127 ) ;
#214 = CYLINDRICAL_SURFACE ( 'NONE', #210, 12.69999999999999929 ) ;
#215 = FACE_OUTER_BOUND ( 'NONE', #180, .T. ) ;
#216 = ORIENTED_EDGE ( 'NONE', *, *, #144, .F. ) ;
#217 = SHAPE_DEFINITION_REPRESENTATION ( #234, #172 ) ;
#218 = DIRECTION ( 'NONE',  ( -0.000000000000000000, -0.000000000000000000, -1.000000000000000000 ) ) ;
#219 = APPLICATION_CONTEXT ( 'automotive_design' ) ;
#220 = CONICAL_SURFACE ( 'NONE', #196, 12.69999999999999929, 0.7853981633974526089 ) ;
#221 = DIRECTION ( 'NONE',  ( -1.197432425832967915E-16, -0.000000000000000000, -1.000000000000000000 ) ) ;
#222 = LINE ( 'NONE', #242, #246 ) ;
#223 =( NAMED_UNIT ( * ) SI_UNIT ( $, .STERADIAN. ) SOLID_ANGLE_UNIT ( ) );
#224 = CIRCLE ( 'NONE', #90, 12.69999999999999929 ) ;
#225 = EDGE_CURVE ( 'NONE', #86, #195, #203, .T. ) ;
#226 = CYLINDRICAL_SURFACE ( 'NONE', #288, 12.69999999999999929 ) ;
#227 = DIRECTION ( 'NONE',  ( -1.197432425832967915E-16, -0.000000000000000000, -1.000000000000000000 ) ) ;
#228 =( GEOMETRIC_REPRESENTATION_CONTEXT ( 3 ) GLOBAL_UNCERTAINTY_ASSIGNED_CONTEXT ( ( #24 ) ) GLOBAL_UNIT_ASSIGNED_CONTEXT ( ( #207, #314, #223 ) ) REPRESENTATION_CONTEXT ( 'NONE', 'WORKASPACE' ) );
#229 = DIRECTION ( 'NONE',  ( 0.000000000000000000, 0.000000000000000000, 1.000000000000000000 ) ) ;
#230 = ORIENTED_EDGE ( 'NONE', *, *, #298, .T. ) ;
#231 = DIRECTION ( 'NONE',  ( 0.7071067811865505703, 0.000000000000000000, 0.7071067811865444641 ) ) ;
#232 = EDGE_CURVE ( 'NONE', #239, #22, #224, .T. ) ;
#233 = VERTEX_POINT ( 'NONE', #97 ) ;
#234 = PRODUCT_DEFINITION_SHAPE ( 'NONE', 'NONE',  #9 ) ;
#235 =( LENGTH_UNIT ( ) NAMED_UNIT ( * ) SI_UNIT ( .MILLI., .METRE. ) );
#236 = ORIENTED_EDGE ( 'NONE', *, *, #58, .T. ) ;
#237 = CIRCLE ( 'NONE', #145, 35.07000000000000739 ) ;
#238 = CARTESIAN_POINT ( 'NONE',  ( 12.69999999999999929, 1.555301434917138433E-15, 0.1999999999999970690 ) ) ;
#239 = VERTEX_POINT ( 'NONE', #238 ) ;
#240 = DIRECTION ( 'NONE',  ( 1.000000000000000000, 0.000000000000000000, 0.000000000000000000 ) ) ;
#241 = CARTESIAN_POINT ( 'NONE',  ( -12.69999999999999929, 0.000000000000000000, 0.1999999999999970690 ) ) ;
#242 = CARTESIAN_POINT ( 'NONE',  ( 12.69999999999999929, 0.000000000000000000, 0.1999999999999970690 ) ) ;
#243 = ORIENTED_EDGE ( 'NONE', *, *, #260, .F. ) ;
#244 = FILL_AREA_STYLE ('',( #13 ) ) ;
#245 = AXIS2_PLACEMENT_3D ( 'NONE', #118, #32, #274 ) ;
#246 = VECTOR ( 'NONE', #231, 1000.000000000000000 ) ;
#247 = FACE_OUTER_BOUND ( 'NONE', #178, .T. ) ;
#248 = CIRCLE ( 'NONE', #124, 12.69999999999999929 ) ;
#249 =( GEOMETRIC_REPRESENTATION_CONTEXT ( 3 ) GLOBAL_UNCERTAINTY_ASSIGNED_CONTEXT ( ( #254 ) ) GLOBAL_UNIT_ASSIGNED_CONTEXT ( ( #275, #252, #301 ) ) REPRESENTATION_CONTEXT ( 'NONE', 'WORKASPACE' ) );
#250 = DIRECTION ( 'NONE',  ( -1.000000000000000000, 0.000000000000000000, 9.892919737535256540E-17 ) ) ;
#251 = EDGE_CURVE ( 'NONE', #315, #195, #80, .T. ) ;
#252 =( NAMED_UNIT ( * ) PLANE_ANGLE_UNIT ( ) SI_UNIT ( $, .RADIAN. ) );
#253 = AXIS2_PLACEMENT_3D ( 'NONE', #67, #221, #255 ) ;
#254 = UNCERTAINTY_MEASURE_WITH_UNIT (LENGTH_MEASURE( 1.000000000000000082E-05 ), #275, 'distance_accuracy_value', 'NONE');
#255 = DIRECTION ( 'NONE',  ( -1.000000000000000000, 0.000000000000000000, 1.197432425832967915E-16 ) ) ;
#256 = CARTESIAN_POINT ( 'NONE',  ( 12.50000000000000000, 0.000000000000000000, 0.000000000000000000 ) ) ;
#257 = ORIENTED_EDGE ( 'NONE', *, *, #104, .F. ) ;
#258 = DIRECTION ( 'NONE',  ( 0.000000000000000000, 0.000000000000000000, -1.000000000000000000 ) ) ;
#259 = ORIENTED_EDGE ( 'NONE', *, *, #291, .T. ) ;
#260 = EDGE_CURVE ( 'NONE', #233, #158, #140, .T. ) ;
#261 = DIRECTION ( 'NONE',  ( 1.000000000000000000, 0.000000000000000000, 0.000000000000000000 ) ) ;
#262 = ORIENTED_EDGE ( 'NONE', *, *, #192, .F. ) ;
#263 = CARTESIAN_POINT ( 'NONE',  ( 0.000000000000000000, 0.000000000000000000, 0.1999999999999970690 ) ) ;
#264 = ORIENTED_EDGE ( 'NONE', *, *, #116, .T. ) ;
#265 = CARTESIAN_POINT ( 'NONE',  ( 12.69999999999999929, 1.555301434917138433E-15, 5.647222222222330501 ) ) ;
#266 = EDGE_LOOP ( 'NONE', ( #88, #259, #161, #313 ) ) ;
#267 = AXIS2_PLACEMENT_3D ( 'NONE', #179, #177, #250 ) ;
#268 = CARTESIAN_POINT ( 'NONE',  ( 0.000000000000000000, 0.000000000000000000, 0.000000000000000000 ) ) ;
#269 = PRODUCT_CONTEXT ( 'NONE', #219, 'mechanical' ) ;
#270 = CARTESIAN_POINT ( 'NONE',  ( 0.000000000000000000, 0.000000000000000000, 0.1999999999999970690 ) ) ;
#271 = CIRCLE ( 'NONE', #191, 1.897222222222331389 ) ;
#272 = ADVANCED_FACE ( 'NONE', ( #119 ), #220, .T. ) ;
#273 = MECHANICAL_DESIGN_GEOMETRIC_PRESENTATION_REPRESENTATION (  '', ( #184 ), #249 ) ;
#274 = DIRECTION ( 'NONE',  ( -1.000000000000000000, 0.000000000000000000, 1.041823145307888133E-16 ) ) ;
#275 =( LENGTH_UNIT ( ) NAMED_UNIT ( * ) SI_UNIT ( .MILLI., .METRE. ) );
#276 = ORIENTED_EDGE ( 'NONE', *, *, #61, .T. ) ;
#277 = SURFACE_STYLE_FILL_AREA ( #244 ) ;
#278 = CARTESIAN_POINT ( 'NONE',  ( 12.48813306599270234, 1.529355218659418198E-15, 3.761866934014635788 ) ) ;
#279 = SURFACE_SIDE_STYLE ('',( #46 ) ) ;
#280 = AXIS2_PLACEMENT_3D ( 'NONE', #270, #123, #306 ) ;
#281 = AXIS2_PLACEMENT_3D ( 'NONE', #165, #299, #198 ) ;
#282 = DIRECTION ( 'NONE',  ( 1.000000000000000000, 0.000000000000000000, -1.041823145307908471E-16 ) ) ;
#283 = CARTESIAN_POINT ( 'NONE',  ( 0.000000000000000000, 0.000000000000000000, 0.000000000000000000 ) ) ;
#284 = ORIENTED_EDGE ( 'NONE', *, *, #232, .F. ) ;
#285 = CARTESIAN_POINT ( 'NONE',  ( 0.000000000000000000, 0.000000000000000000, -29.07000000000000028 ) ) ;
#286 = CIRCLE ( 'NONE', #200, 12.04821388316975295 ) ;
#287 = ORIENTED_EDGE ( 'NONE', *, *, #104, .T. ) ;
#288 = AXIS2_PLACEMENT_3D ( 'NONE', #18, #171, #174 ) ;
#289 = ORIENTED_EDGE ( 'NONE', *, *, #58, .F. ) ;
#290 =( NAMED_UNIT ( * ) SI_UNIT ( $, .STERADIAN. ) SOLID_ANGLE_UNIT ( ) );
#291 = EDGE_CURVE ( 'NONE', #45, #311, #28, .T. ) ;
#292 = ORIENTED_EDGE ( 'NONE', *, *, #94, .F. ) ;
#293 = CARTESIAN_POINT ( 'NONE',  ( -12.69999999999999929, 1.555301434917138433E-15, 0.1999999999999970690 ) ) ;
#294 = ORIENTED_EDGE ( 'NONE', *, *, #232, .T. ) ;
#295 = TOROIDAL_SURFACE ( 'NONE', #150, 12.69999999999999929, 1.897222222222331389 ) ;
#296 = DIRECTION ( 'NONE',  ( -0.7071067811865505703, 8.659560562354969836E-17, 0.7071067811865444641 ) ) ;
#297 = ORIENTED_EDGE ( 'NONE', *, *, #291, .F. ) ;
#298 = EDGE_CURVE ( 'NONE', #233, #22, #135, .T. ) ;
#299 = DIRECTION ( 'NONE',  ( 0.000000000000000000, 0.000000000000000000, 1.000000000000000000 ) ) ;
#300 = AXIS2_PLACEMENT_3D ( 'NONE', #283, #129, #87 ) ;
#301 =( NAMED_UNIT ( * ) SI_UNIT ( $, .STERADIAN. ) SOLID_ANGLE_UNIT ( ) );
#302 = COLOUR_RGB ( '',1.000000000000000000, 1.000000000000000000, 1.000000000000000000 ) ;
#303 = APPLICATION_PROTOCOL_DEFINITION ( 'draft international standard', 'automotive_design', 1998, #219 ) ;
#304 = CARTESIAN_POINT ( 'NONE',  ( 0.000000000000000000, 0.000000000000000000, -29.07000000000000028 ) ) ;
#305 = PRESENTATION_LAYER_ASSIGNMENT (  '', '', ( #184 ) ) ;
#306 = DIRECTION ( 'NONE',  ( 1.000000000000000000, 0.000000000000000000, 0.000000000000000000 ) ) ;
#307 = DIRECTION ( 'NONE',  ( 1.197432425832967915E-16, -0.000000000000000000, 1.000000000000000000 ) ) ;
#308 = CIRCLE ( 'NONE', #300, 12.50000000000000000 ) ;
#309 = CARTESIAN_POINT ( 'NONE',  ( 0.000000000000000000, 0.000000000000000000, 0.000000000000000000 ) ) ;
#310 = EDGE_CURVE ( 'NONE', #22, #239, #11, .T. ) ;
#311 = VERTEX_POINT ( 'NONE', #77 ) ;
#312 = DIRECTION ( 'NONE',  ( 1.000000000000000000, 0.000000000000000000, -1.365923996832131609E-16 ) ) ;
#313 = ORIENTED_EDGE ( 'NONE', *, *, #310, .T. ) ;
#314 =( NAMED_UNIT ( * ) PLANE_ANGLE_UNIT ( ) SI_UNIT ( $, .RADIAN. ) );
#315 = VERTEX_POINT ( 'NONE', #164 ) ;
#316 = ADVANCED_FACE ( 'NONE', ( #91 ), #173, .T. ) ;
#317 = DIRECTION ( 'NONE',  ( -1.000000000000000000, 0.000000000000000000, 1.079863471547465051E-16 ) ) ;
#318 = EDGE_LOOP ( 'NONE', ( #185, #276, #294, #50 ) ) ;
ENDSEC;
END-ISO-10303-21;
