ISO-10303-21;
HEADER;
FILE_DESCRIPTION (( 'STEP AP214' ),
    '1' );
FILE_NAME ('GL7AL1-025-025-IR1.STEP',
    '2024-07-21T09:24:19',
    ( '' ),
    ( '' ),
    'SwSTEP 2.0',
    'SolidWorks 2022',
    '' );
FILE_SCHEMA (( 'AUTOMOTIVE_DESIGN' ));
ENDSEC;

DATA;
#1 =( NAMED_UNIT ( * ) PLANE_ANGLE_UNIT ( ) SI_UNIT ( $, .RADIAN. ) );
#2 = FACE_OUTER_BOUND ( 'NONE', #209, .T. ) ;
#3 = CIRCLE ( 'NONE', #170, 12.05188948413890948 ) ;
#4 = ORIENTED_EDGE ( 'NONE', *, *, #160, .T. ) ;
#5 =( NAMED_UNIT ( * ) SI_UNIT ( $, .STERADIAN. ) SOLID_ANGLE_UNIT ( ) );
#6 = UNCERTAINTY_MEASURE_WITH_UNIT (LENGTH_MEASURE( 1.000000000000000082E-05 ), #221, 'distance_accuracy_value', 'NONE');
#7 =( NAMED_UNIT ( * ) SI_UNIT ( $, .STERADIAN. ) SOLID_ANGLE_UNIT ( ) );
#8 = EDGE_CURVE ( 'NONE', #105, #125, #136, .T. ) ;
#9 = CARTESIAN_POINT ( 'NONE',  ( 0.000000000000000000, 0.000000000000000000, 0.000000000000000000 ) ) ;
#10 = ORIENTED_EDGE ( 'NONE', *, *, #242, .T. ) ;
#11 = CARTESIAN_POINT ( 'NONE',  ( 0.000000000000000000, 0.000000000000000000, -29.83000000000000540 ) ) ;
#12 = SHAPE_DEFINITION_REPRESENTATION ( #315, #151 ) ;
#13 = DIRECTION ( 'NONE',  ( -1.224646799147353947E-16, 0.000000000000000000, -1.000000000000000000 ) ) ;
#14 = DIRECTION ( 'NONE',  ( -0.000000000000000000, -0.000000000000000000, 1.000000000000000000 ) ) ;
#15 = CIRCLE ( 'NONE', #21, 35.83000000000000540 ) ;
#16 = DIRECTION ( 'NONE',  ( 0.000000000000000000, -1.000000000000000000, 0.000000000000000000 ) ) ;
#17 = EDGE_LOOP ( 'NONE', ( #225, #185, #198, #181 ) ) ;
#18 = EDGE_CURVE ( 'NONE', #240, #59, #245, .T. ) ;
#19 = COLOUR_RGB ( '',1.000000000000000000, 1.000000000000000000, 1.000000000000000000 ) ;
#20 = FILL_AREA_STYLE_COLOUR ( '', #19 ) ;
#21 = AXIS2_PLACEMENT_3D ( 'NONE', #11, #134, #66 ) ;
#22 = CARTESIAN_POINT ( 'NONE',  ( -2.345391434571918095E-16, 0.000000000000000000, 3.811660737071838945 ) ) ;
#23 = EDGE_CURVE ( 'NONE', #125, #59, #158, .T. ) ;
#24 = CARTESIAN_POINT ( 'NONE',  ( 12.49999999999998579, 0.000000000000000000, 0.000000000000000000 ) ) ;
#25 = DIRECTION ( 'NONE',  ( -1.224646799147353454E-16, -0.000000000000000000, -1.000000000000000000 ) ) ;
#26 = PRESENTATION_STYLE_ASSIGNMENT (( #82 ) ) ;
#27 = ORIENTED_EDGE ( 'NONE', *, *, #53, .T. ) ;
#28 = ORIENTED_EDGE ( 'NONE', *, *, #178, .T. ) ;
#29 = DIRECTION ( 'NONE',  ( -1.224646799147353947E-16, 0.000000000000000000, -1.000000000000000000 ) ) ;
#30 = ORIENTED_EDGE ( 'NONE', *, *, #317, .F. ) ;
#31 = AXIS2_PLACEMENT_3D ( 'NONE', #91, #208, #63 ) ;
#32 = FILL_AREA_STYLE_COLOUR ( '', #284 ) ;
#33 = PRODUCT_DEFINITION ( 'Î´Öª', '', #112, #121 ) ;
#34 = EDGE_LOOP ( 'NONE', ( #79, #28, #106, #153 ) ) ;
#35 = PRESENTATION_LAYER_ASSIGNMENT (  '', '', ( #143 ) ) ;
#36 = VERTEX_POINT ( 'NONE', #307 ) ;
#37 = CIRCLE ( 'NONE', #196, 12.69999999999999929 ) ;
#38 = CYLINDRICAL_SURFACE ( 'NONE', #72, 12.69999999999999929 ) ;
#39 = VECTOR ( 'NONE', #263, 1000.000000000000000 ) ;
#40 = AXIS2_PLACEMENT_3D ( 'NONE', #116, #237, #50 ) ;
#41 = DIRECTION ( 'NONE',  ( -1.000000000000000000, 0.000000000000000000, 1.389074591468186669E-16 ) ) ;
#42 = DIRECTION ( 'NONE',  ( -0.000000000000000000, -0.000000000000000000, -1.000000000000000000 ) ) ;
#43 = CARTESIAN_POINT ( 'NONE',  ( 12.69999999999999929, 1.555301434917138038E-15, 3.600000000000020961 ) ) ;
#44 = CARTESIAN_POINT ( 'NONE',  ( 0.000000000000000000, 0.000000000000000000, -29.83000000000000540 ) ) ;
#45 = DIRECTION ( 'NONE',  ( -1.000000000000000000, 0.000000000000000000, 1.439378844503858794E-16 ) ) ;
#46 = MECHANICAL_DESIGN_GEOMETRIC_PRESENTATION_REPRESENTATION (  '', ( #76 ), #259 ) ;
#47 = CARTESIAN_POINT ( 'NONE',  ( -12.48833926292817509, 0.000000000000000000, 3.811660737071840721 ) ) ;
#48 = EDGE_CURVE ( 'NONE', #125, #105, #199, .T. ) ;
#49 = DIRECTION ( 'NONE',  ( -1.000000000000000000, 0.000000000000000000, 1.224646799147353454E-16 ) ) ;
#50 = DIRECTION ( 'NONE',  ( 1.000000000000000000, 0.000000000000000000, 0.000000000000000000 ) ) ;
#51 = PLANE ( 'NONE',  #277 ) ;
#52 = PRESENTATION_STYLE_ASSIGNMENT (( #171 ) ) ;
#53 = EDGE_CURVE ( 'NONE', #249, #59, #15, .T. ) ;
#54 = ORIENTED_EDGE ( 'NONE', *, *, #271, .T. ) ;
#55 = CONICAL_SURFACE ( 'NONE', #139, 12.48833926292817509, 0.7853981633974678189 ) ;
#56 = ORIENTED_EDGE ( 'NONE', *, *, #299, .T. ) ;
#57 = DIRECTION ( 'NONE',  ( 0.000000000000000000, 1.000000000000000000, -0.000000000000000000 ) ) ;
#58 = ADVANCED_FACE ( 'NONE', ( #157 ), #280, .T. ) ;
#59 = VERTEX_POINT ( 'NONE', #278 ) ;
#60 = AXIS2_PLACEMENT_3D ( 'NONE', #44, #256, #137 ) ;
#61 = ORIENTED_EDGE ( 'NONE', *, *, #311, .F. ) ;
#62 = AXIS2_PLACEMENT_3D ( 'NONE', #123, #29, #176 ) ;
#63 = DIRECTION ( 'NONE',  ( -1.000000000000000000, 0.000000000000000000, 1.439378844503858794E-16 ) ) ;
#64 = CIRCLE ( 'NONE', #312, 12.69999999999999929 ) ;
#65 = FACE_OUTER_BOUND ( 'NONE', #174, .T. ) ;
#66 = DIRECTION ( 'NONE',  ( -1.000000000000000000, -1.224646799147353454E-16, 0.000000000000000000 ) ) ;
#67 = ADVANCED_FACE ( 'NONE', ( #65 ), #162, .T. ) ;
#68 = DIRECTION ( 'NONE',  ( 1.000000000000000000, 0.000000000000000000, -1.389074591468158566E-16 ) ) ;
#69 = DIRECTION ( 'NONE',  ( -1.000000000000000000, 0.000000000000000000, 1.224646799147353454E-16 ) ) ;
#70 = DIRECTION ( 'NONE',  ( 1.000000000000000000, 0.000000000000000000, -1.365923996832131609E-16 ) ) ;
#71 = DIRECTION ( 'NONE',  ( -1.224646799147353454E-16, -0.000000000000000000, -1.000000000000000000 ) ) ;
#72 = AXIS2_PLACEMENT_3D ( 'NONE', #285, #87, #226 ) ;
#73 = DIRECTION ( 'NONE',  ( -0.000000000000000000, -0.000000000000000000, -1.000000000000000000 ) ) ;
#74 = LINE ( 'NONE', #261, #156 ) ;
#75 = MECHANICAL_DESIGN_GEOMETRIC_PRESENTATION_REPRESENTATION (  '', ( #143 ), #211 ) ;
#76 = STYLED_ITEM ( 'NONE', ( #26 ), #286 ) ;
#77 = SURFACE_SIDE_STYLE ('',( #294 ) ) ;
#78 = CIRCLE ( 'NONE', #252, 12.49999999999998579 ) ;
#79 = ORIENTED_EDGE ( 'NONE', *, *, #210, .F. ) ;
#80 = ORIENTED_EDGE ( 'NONE', *, *, #110, .T. ) ;
#81 = ADVANCED_FACE ( 'NONE', ( #251 ), #38, .T. ) ;
#82 = SURFACE_STYLE_USAGE ( .BOTH. , #191 ) ;
#83 = ORIENTED_EDGE ( 'NONE', *, *, #110, .F. ) ;
#84 = AXIS2_PLACEMENT_3D ( 'NONE', #233, #300, #187 ) ;
#85 = VERTEX_POINT ( 'NONE', #107 ) ;
#86 = APPLICATION_PROTOCOL_DEFINITION ( 'draft international standard', 'automotive_design', 1998, #207 ) ;
#87 = DIRECTION ( 'NONE',  ( -0.000000000000000000, -0.000000000000000000, -1.000000000000000000 ) ) ;
#88 = CIRCLE ( 'NONE', #212, 35.82999999999999829 ) ;
#89 = CARTESIAN_POINT ( 'NONE',  ( -12.48833926291794150, 0.000000000000000000, 3.811660737074130445 ) ) ;
#90 = DIRECTION ( 'NONE',  ( 0.000000000000000000, 0.000000000000000000, 1.000000000000000000 ) ) ;
#91 = CARTESIAN_POINT ( 'NONE',  ( 1.374924591523393738E-17, 0.000000000000000000, 3.912271112983813470 ) ) ;
#92 = VERTEX_POINT ( 'NONE', #161 ) ;
#93 = DIRECTION ( 'NONE',  ( 1.000000000000000000, 0.000000000000000000, 0.000000000000000000 ) ) ;
#94 = SURFACE_STYLE_FILL_AREA ( #214 ) ;
#95 = DIRECTION ( 'NONE',  ( -1.224646799147353947E-16, 0.000000000000000000, -1.000000000000000000 ) ) ;
#96 = CARTESIAN_POINT ( 'NONE',  ( 0.000000000000000000, 0.000000000000000000, 5.726818181818250864 ) ) ;
#97 = CARTESIAN_POINT ( 'NONE',  ( 12.69999999999999929, 1.555301434917138038E-15, 0.2000000000000126676 ) ) ;
#98 = ADVANCED_FACE ( 'NONE', ( #301 ), #231, .T. ) ;
#99 = VECTOR ( 'NONE', #258, 999.9999999999998863 ) ;
#100 = SPHERICAL_SURFACE ( 'NONE', #250, 35.83000000000000540 ) ;
#101 = ORIENTED_EDGE ( 'NONE', *, *, #167, .T. ) ;
#102 = AXIS2_PLACEMENT_3D ( 'NONE', #283, #16, #290 ) ;
#103 = VERTEX_POINT ( 'NONE', #43 ) ;
#104 = EDGE_LOOP ( 'NONE', ( #101, #80, #111, #30 ) ) ;
#105 = VERTEX_POINT ( 'NONE', #89 ) ;
#106 = ORIENTED_EDGE ( 'NONE', *, *, #119, .F. ) ;
#107 = CARTESIAN_POINT ( 'NONE',  ( -12.69999999999999929, 0.000000000000000000, 3.600000000000024514 ) ) ;
#108 = ORIENTED_EDGE ( 'NONE', *, *, #311, .T. ) ;
#109 = DIRECTION ( 'NONE',  ( 1.000000000000000000, 0.000000000000000000, 0.000000000000000000 ) ) ;
#110 = EDGE_CURVE ( 'NONE', #103, #180, #255, .T. ) ;
#111 = ORIENTED_EDGE ( 'NONE', *, *, #119, .T. ) ;
#112 = PRODUCT_DEFINITION_FORMATION_WITH_SPECIFIED_SOURCE ( 'ÈÎºÎ', '', #135, .NOT_KNOWN. ) ;
#113 = DIRECTION ( 'NONE',  ( 1.000000000000000000, 0.000000000000000000, -0.000000000000000000 ) ) ;
#114 = CIRCLE ( 'NONE', #62, 12.69999999999999929 ) ;
#115 = FACE_OUTER_BOUND ( 'NONE', #17, .T. ) ;
#116 = CARTESIAN_POINT ( 'NONE',  ( 0.000000000000000000, 0.000000000000000000, 0.2000000000000126676 ) ) ;
#117 = DIRECTION ( 'NONE',  ( -1.224646799147353947E-16, 0.000000000000000000, -1.000000000000000000 ) ) ;
#118 = CARTESIAN_POINT ( 'NONE',  ( -12.05188948413890948, 0.000000000000000000, 3.912271112983815247 ) ) ;
#119 = EDGE_CURVE ( 'NONE', #180, #92, #64, .T. ) ;
#120 = ORIENTED_EDGE ( 'NONE', *, *, #48, .F. ) ;
#121 = PRODUCT_DEFINITION_CONTEXT ( 'detailed design', #207, 'design' ) ;
#122 = VECTOR ( 'NONE', #222, 1000.000000000000000 ) ;
#123 = CARTESIAN_POINT ( 'NONE',  ( 0.000000000000000000, 0.000000000000000000, 3.600000000000022737 ) ) ;
#124 = CARTESIAN_POINT ( 'NONE',  ( -12.69999999999999929, 0.000000000000000000, 3.799999999999999822 ) ) ;
#125 = VERTEX_POINT ( 'NONE', #306 ) ;
#126 = TOROIDAL_SURFACE ( 'NONE', #309, 12.69999999999999929, 1.926818181818252151 ) ;
#127 = EDGE_CURVE ( 'NONE', #105, #240, #291, .T. ) ;
#128 = ORIENTED_EDGE ( 'NONE', *, *, #210, .T. ) ;
#129 = ORIENTED_EDGE ( 'NONE', *, *, #127, .T. ) ;
#130 = AXIS2_PLACEMENT_3D ( 'NONE', #144, #314, #235 ) ;
#131 = ORIENTED_EDGE ( 'NONE', *, *, #178, .F. ) ;
#132 = PRODUCT_RELATED_PRODUCT_CATEGORY ( 'part', '', ( #135 ) ) ;
#133 = CARTESIAN_POINT ( 'NONE',  ( 0.000000000000000000, 0.000000000000000000, 0.2000000000000126676 ) ) ;
#134 = DIRECTION ( 'NONE',  ( -1.224646799147353207E-16, 1.000000000000000000, 1.499759782661857882E-32 ) ) ;
#135 = PRODUCT ( 'GL7AL1-025-025-IR1', 'GL7AL1-025-025-IR1', '', ( #282 ) ) ;
#136 = CIRCLE ( 'NONE', #262, 12.48833926292842911 ) ;
#137 = DIRECTION ( 'NONE',  ( -1.000000000000000000, 0.000000000000000000, 9.683078291804669963E-17 ) ) ;
#138 = CARTESIAN_POINT ( 'NONE',  ( 0.000000000000000000, 0.000000000000000000, 0.2000000000000126676 ) ) ;
#139 = AXIS2_PLACEMENT_3D ( 'NONE', #22, #95, #292 ) ;
#140 = DIRECTION ( 'NONE',  ( -1.224646799147353454E-16, -0.000000000000000000, -1.000000000000000000 ) ) ;
#141 = VECTOR ( 'NONE', #234, 1000.000000000000000 ) ;
#142 = CARTESIAN_POINT ( 'NONE',  ( 2.193954740672484613E-15, 0.000000000000000000, 6.000000000000001776 ) ) ;
#143 = STYLED_ITEM ( 'NONE', ( #52 ), #151 ) ;
#144 = CARTESIAN_POINT ( 'NONE',  ( 0.000000000000000000, 0.000000000000000000, 0.000000000000000000 ) ) ;
#145 = CARTESIAN_POINT ( 'NONE',  ( 0.000000000000000000, 0.000000000000000000, 0.000000000000000000 ) ) ;
#146 = FILL_AREA_STYLE ('',( #32 ) ) ;
#147 = ORIENTED_EDGE ( 'NONE', *, *, #163, .F. ) ;
#148 = ORIENTED_EDGE ( 'NONE', *, *, #281, .F. ) ;
#149 =( NAMED_UNIT ( * ) PLANE_ANGLE_UNIT ( ) SI_UNIT ( $, .RADIAN. ) );
#150 = ORIENTED_EDGE ( 'NONE', *, *, #8, .F. ) ;
#151 = ADVANCED_BREP_SHAPE_REPRESENTATION ( 'GL7AL1-025-025-IR1', ( #286, #248 ), #308 ) ;
#152 = CLOSED_SHELL ( 'NONE', ( #220, #188, #305, #216, #81, #67, #264, #223, #58, #155, #98 ) ) ;
#153 = ORIENTED_EDGE ( 'NONE', *, *, #242, .F. ) ;
#154 = APPLICATION_CONTEXT ( 'automotive_design' ) ;
#155 = ADVANCED_FACE ( 'NONE', ( #288 ), #184, .T. ) ;
#156 = VECTOR ( 'NONE', #219, 1000.000000000000000 ) ;
#157 = FACE_OUTER_BOUND ( 'NONE', #183, .T. ) ;
#158 = CIRCLE ( 'NONE', #84, 1.926818181818251707 ) ;
#159 = CARTESIAN_POINT ( 'NONE',  ( -2.345391434571918095E-16, 0.000000000000000000, 3.811660737071838945 ) ) ;
#160 = EDGE_CURVE ( 'NONE', #105, #85, #165, .T. ) ;
#161 = CARTESIAN_POINT ( 'NONE',  ( -12.69999999999999929, 0.000000000000000000, 0.2000000000000126676 ) ) ;
#162 = CYLINDRICAL_SURFACE ( 'NONE', #166, 12.69999999999999929 ) ;
#163 = EDGE_CURVE ( 'NONE', #257, #36, #78, .T. ) ;
#164 = CARTESIAN_POINT ( 'NONE',  ( 12.48833926292817509, 1.529380470501120270E-15, 3.811660737071837168 ) ) ;
#165 = LINE ( 'NONE', #47, #39 ) ;
#166 = AXIS2_PLACEMENT_3D ( 'NONE', #205, #304, #228 ) ;
#167 = EDGE_CURVE ( 'NONE', #85, #103, #236, .T. ) ;
#168 = CARTESIAN_POINT ( 'NONE',  ( 0.000000000000000000, 0.000000000000000000, 5.726818181818250864 ) ) ;
#169 = FACE_OUTER_BOUND ( 'NONE', #267, .T. ) ;
#170 = AXIS2_PLACEMENT_3D ( 'NONE', #260, #140, #45 ) ;
#171 = SURFACE_STYLE_USAGE ( .BOTH. , #77 ) ;
#172 = ORIENTED_EDGE ( 'NONE', *, *, #271, .F. ) ;
#173 = AXIS2_PLACEMENT_3D ( 'NONE', #159, #13, #41 ) ;
#174 = EDGE_LOOP ( 'NONE', ( #83, #108, #274, #56 ) ) ;
#175 =( LENGTH_UNIT ( ) NAMED_UNIT ( * ) SI_UNIT ( .MILLI., .METRE. ) );
#176 = DIRECTION ( 'NONE',  ( 1.000000000000000000, 0.000000000000000000, -1.365923996832131609E-16 ) ) ;
#177 = ORIENTED_EDGE ( 'NONE', *, *, #53, .F. ) ;
#178 = EDGE_CURVE ( 'NONE', #36, #92, #217, .T. ) ;
#179 = AXIS2_PLACEMENT_3D ( 'NONE', #253, #276, #206 ) ;
#180 = VERTEX_POINT ( 'NONE', #97 ) ;
#181 = ORIENTED_EDGE ( 'NONE', *, *, #127, .F. ) ;
#182 = PRESENTATION_LAYER_ASSIGNMENT (  '', '', ( #76 ) ) ;
#183 = EDGE_LOOP ( 'NONE', ( #177, #244, #148 ) ) ;
#184 = CONICAL_SURFACE ( 'NONE', #194, 12.69999999999999929, 0.7853981633974526089 ) ;
#185 = ORIENTED_EDGE ( 'NONE', *, *, #23, .T. ) ;
#186 = DIRECTION ( 'NONE',  ( 1.224646799147353947E-16, -0.000000000000000000, 1.000000000000000000 ) ) ;
#187 = DIRECTION ( 'NONE',  ( -1.000000000000000000, -1.224646799147353207E-16, 0.000000000000000000 ) ) ;
#188 = ADVANCED_FACE ( 'NONE', ( #287 ), #254, .T. ) ;
#189 = DIRECTION ( 'NONE',  ( 1.000000000000000000, 0.000000000000000000, 0.000000000000000000 ) ) ;
#190 = TOROIDAL_SURFACE ( 'NONE', #227, 12.69999999999999929, 1.926818181818252151 ) ;
#191 = SURFACE_SIDE_STYLE ('',( #94 ) ) ;
#192 = CARTESIAN_POINT ( 'NONE',  ( 0.000000000000000000, 0.000000000000000000, 0.2000000000000126676 ) ) ;
#193 = DIRECTION ( 'NONE',  ( 0.000000000000000000, -1.000000000000000000, 0.000000000000000000 ) ) ;
#194 = AXIS2_PLACEMENT_3D ( 'NONE', #192, #310, #93 ) ;
#195 = APPLICATION_PROTOCOL_DEFINITION ( 'draft international standard', 'automotive_design', 1998, #154 ) ;
#196 = AXIS2_PLACEMENT_3D ( 'NONE', #138, #273, #272 ) ;
#197 = CARTESIAN_POINT ( 'NONE',  ( 0.000000000000000000, 0.000000000000000000, -29.83000000000000540 ) ) ;
#198 = ORIENTED_EDGE ( 'NONE', *, *, #281, .T. ) ;
#199 = CIRCLE ( 'NONE', #179, 12.48833926292842911 ) ;
#200 = EDGE_LOOP ( 'NONE', ( #131, #147, #10, #295 ) ) ;
#201 = LINE ( 'NONE', #124, #122 ) ;
#202 = ORIENTED_EDGE ( 'NONE', *, *, #163, .T. ) ;
#203 = ORIENTED_EDGE ( 'NONE', *, *, #23, .F. ) ;
#204 = CARTESIAN_POINT ( 'NONE',  ( -2.345391434569114681E-16, 0.000000000000000000, 3.811660737074128669 ) ) ;
#205 = CARTESIAN_POINT ( 'NONE',  ( 0.000000000000000000, 0.000000000000000000, 3.799999999999999822 ) ) ;
#206 = DIRECTION ( 'NONE',  ( 1.000000000000000000, 0.000000000000000000, -1.389074591468158566E-16 ) ) ;
#207 = APPLICATION_CONTEXT ( 'automotive_design' ) ;
#208 = DIRECTION ( 'NONE',  ( -1.224646799147353454E-16, -0.000000000000000000, -1.000000000000000000 ) ) ;
#209 = EDGE_LOOP ( 'NONE', ( #270, #27, #224 ) ) ;
#210 = EDGE_CURVE ( 'NONE', #36, #257, #215, .T. ) ;
#211 =( GEOMETRIC_REPRESENTATION_CONTEXT ( 3 ) GLOBAL_UNCERTAINTY_ASSIGNED_CONTEXT ( ( #302 ) ) GLOBAL_UNIT_ASSIGNED_CONTEXT ( ( #175, #269, #7 ) ) REPRESENTATION_CONTEXT ( 'NONE', 'WORKASPACE' ) );
#212 = AXIS2_PLACEMENT_3D ( 'NONE', #238, #193, #218 ) ;
#213 = LINE ( 'NONE', #164, #99 ) ;
#214 = FILL_AREA_STYLE ('',( #20 ) ) ;
#215 = CIRCLE ( 'NONE', #130, 12.49999999999998579 ) ;
#216 = ADVANCED_FACE ( 'NONE', ( #115 ), #190, .F. ) ;
#217 = LINE ( 'NONE', #265, #141 ) ;
#218 = DIRECTION ( 'NONE',  ( 0.000000000000000000, 0.000000000000000000, -1.000000000000000000 ) ) ;
#219 = DIRECTION ( 'NONE',  ( 0.7071067811865505703, 0.000000000000000000, 0.7071067811865444641 ) ) ;
#220 = ADVANCED_FACE ( 'NONE', ( #313 ), #55, .T. ) ;
#221 =( LENGTH_UNIT ( ) NAMED_UNIT ( * ) SI_UNIT ( .MILLI., .METRE. ) );
#222 = DIRECTION ( 'NONE',  ( -0.000000000000000000, -0.000000000000000000, -1.000000000000000000 ) ) ;
#223 = ADVANCED_FACE ( 'NONE', ( #289 ), #126, .F. ) ;
#224 = ORIENTED_EDGE ( 'NONE', *, *, #18, .F. ) ;
#225 = ORIENTED_EDGE ( 'NONE', *, *, #8, .T. ) ;
#226 = DIRECTION ( 'NONE',  ( -1.000000000000000000, 0.000000000000000000, 0.000000000000000000 ) ) ;
#227 = AXIS2_PLACEMENT_3D ( 'NONE', #168, #25, #49 ) ;
#228 = DIRECTION ( 'NONE',  ( -1.000000000000000000, 0.000000000000000000, 0.000000000000000000 ) ) ;
#229 = ORIENTED_EDGE ( 'NONE', *, *, #160, .F. ) ;
#230 = EDGE_CURVE ( 'NONE', #249, #240, #88, .T. ) ;
#231 = CONICAL_SURFACE ( 'NONE', #173, 12.48833926292817509, 0.7853981633974678189 ) ;
#232 = CARTESIAN_POINT ( 'NONE',  ( 12.69999999999999929, 1.555301434917138038E-15, 3.799999999999999822 ) ) ;
#233 = CARTESIAN_POINT ( 'NONE',  ( 12.69999999999999929, 1.555301434917138433E-15, 5.726818181818249087 ) ) ;
#234 = DIRECTION ( 'NONE',  ( -0.7071067811865505703, 8.659560562354969836E-17, 0.7071067811865444641 ) ) ;
#235 = DIRECTION ( 'NONE',  ( 1.000000000000000000, 0.000000000000000000, 0.000000000000000000 ) ) ;
#236 = CIRCLE ( 'NONE', #279, 12.69999999999999929 ) ;
#237 = DIRECTION ( 'NONE',  ( -0.000000000000000000, -0.000000000000000000, 1.000000000000000000 ) ) ;
#238 = CARTESIAN_POINT ( 'NONE',  ( 0.000000000000000000, 0.000000000000000000, -29.83000000000000540 ) ) ;
#239 = DIRECTION ( 'NONE',  ( 0.000000000000000000, 0.000000000000000000, 1.000000000000000000 ) ) ;
#240 = VERTEX_POINT ( 'NONE', #118 ) ;
#241 = UNCERTAINTY_MEASURE_WITH_UNIT (LENGTH_MEASURE( 1.000000000000000082E-05 ), #246, 'distance_accuracy_value', 'NONE');
#242 = EDGE_CURVE ( 'NONE', #257, #180, #74, .T. ) ;
#243 = DIRECTION ( 'NONE',  ( -1.000000000000000000, 0.000000000000000000, 9.683078291804669963E-17 ) ) ;
#244 = ORIENTED_EDGE ( 'NONE', *, *, #230, .T. ) ;
#245 = CIRCLE ( 'NONE', #31, 12.05188948413890948 ) ;
#246 =( LENGTH_UNIT ( ) NAMED_UNIT ( * ) SI_UNIT ( .MILLI., .METRE. ) );
#247 = ORIENTED_EDGE ( 'NONE', *, *, #18, .T. ) ;
#248 = AXIS2_PLACEMENT_3D ( 'NONE', #9, #90, #303 ) ;
#249 = VERTEX_POINT ( 'NONE', #142 ) ;
#250 = AXIS2_PLACEMENT_3D ( 'NONE', #197, #57, #243 ) ;
#251 = FACE_OUTER_BOUND ( 'NONE', #104, .T. ) ;
#252 = AXIS2_PLACEMENT_3D ( 'NONE', #318, #73, #189 ) ;
#253 = CARTESIAN_POINT ( 'NONE',  ( -2.345391434569114681E-16, 0.000000000000000000, 3.811660737074128669 ) ) ;
#254 = CONICAL_SURFACE ( 'NONE', #40, 12.69999999999999929, 0.7853981633974526089 ) ;
#255 = LINE ( 'NONE', #232, #268 ) ;
#256 = DIRECTION ( 'NONE',  ( 0.000000000000000000, 1.000000000000000000, -0.000000000000000000 ) ) ;
#257 = VERTEX_POINT ( 'NONE', #24 ) ;
#258 = DIRECTION ( 'NONE',  ( 0.7071067811865612285, 8.659560562355102956E-17, -0.7071067811865339170 ) ) ;
#259 =( GEOMETRIC_REPRESENTATION_CONTEXT ( 3 ) GLOBAL_UNCERTAINTY_ASSIGNED_CONTEXT ( ( #241 ) ) GLOBAL_UNIT_ASSIGNED_CONTEXT ( ( #246, #149, #266 ) ) REPRESENTATION_CONTEXT ( 'NONE', 'WORKASPACE' ) );
#260 = CARTESIAN_POINT ( 'NONE',  ( 1.374924591523393738E-17, 0.000000000000000000, 3.912271112983813470 ) ) ;
#261 = CARTESIAN_POINT ( 'NONE',  ( 12.69999999999999929, 0.000000000000000000, 0.2000000000000126676 ) ) ;
#262 = AXIS2_PLACEMENT_3D ( 'NONE', #204, #186, #68 ) ;
#263 = DIRECTION ( 'NONE',  ( -0.7071067811865614505, 0.000000000000000000, -0.7071067811865335839 ) ) ;
#264 = ADVANCED_FACE ( 'NONE', ( #169 ), #51, .F. ) ;
#265 = CARTESIAN_POINT ( 'NONE',  ( -12.69999999999999929, 1.555301434917138433E-15, 0.2000000000000126676 ) ) ;
#266 =( NAMED_UNIT ( * ) SI_UNIT ( $, .STERADIAN. ) SOLID_ANGLE_UNIT ( ) );
#267 = EDGE_LOOP ( 'NONE', ( #202, #128 ) ) ;
#268 = VECTOR ( 'NONE', #42, 1000.000000000000000 ) ;
#269 =( NAMED_UNIT ( * ) PLANE_ANGLE_UNIT ( ) SI_UNIT ( $, .RADIAN. ) );
#270 = ORIENTED_EDGE ( 'NONE', *, *, #230, .F. ) ;
#271 = EDGE_CURVE ( 'NONE', #125, #103, #213, .T. ) ;
#272 = DIRECTION ( 'NONE',  ( 1.000000000000000000, 0.000000000000000000, 0.000000000000000000 ) ) ;
#273 = DIRECTION ( 'NONE',  ( -0.000000000000000000, -0.000000000000000000, 1.000000000000000000 ) ) ;
#274 = ORIENTED_EDGE ( 'NONE', *, *, #317, .T. ) ;
#275 = EDGE_LOOP ( 'NONE', ( #172, #150, #4, #61 ) ) ;
#276 = DIRECTION ( 'NONE',  ( 1.224646799147353947E-16, -0.000000000000000000, 1.000000000000000000 ) ) ;
#277 = AXIS2_PLACEMENT_3D ( 'NONE', #145, #239, #113 ) ;
#278 = CARTESIAN_POINT ( 'NONE',  ( 12.05188948413890948, 1.502655629271978260E-15, 3.912271112983811694 ) ) ;
#279 = AXIS2_PLACEMENT_3D ( 'NONE', #316, #117, #70 ) ;
#280 = SPHERICAL_SURFACE ( 'NONE', #60, 35.83000000000000540 ) ;
#281 = EDGE_CURVE ( 'NONE', #59, #240, #3, .T. ) ;
#282 = PRODUCT_CONTEXT ( 'NONE', #154, 'mechanical' ) ;
#283 = CARTESIAN_POINT ( 'NONE',  ( -12.69999999999999929, 0.000000000000000000, 5.726818181818252640 ) ) ;
#284 = COLOUR_RGB ( '',1.000000000000000000, 1.000000000000000000, 1.000000000000000000 ) ;
#285 = CARTESIAN_POINT ( 'NONE',  ( 0.000000000000000000, 0.000000000000000000, 3.799999999999999822 ) ) ;
#286 = MANIFOLD_SOLID_BREP ( 'µ¹½Ç2', #152 ) ;
#287 = FACE_OUTER_BOUND ( 'NONE', #34, .T. ) ;
#288 = FACE_OUTER_BOUND ( 'NONE', #200, .T. ) ;
#289 = FACE_OUTER_BOUND ( 'NONE', #298, .T. ) ;
#290 = DIRECTION ( 'NONE',  ( 0.000000000000000000, 0.000000000000000000, -1.000000000000000000 ) ) ;
#291 = CIRCLE ( 'NONE', #102, 1.926818181818252151 ) ;
#292 = DIRECTION ( 'NONE',  ( -1.000000000000000000, 0.000000000000000000, 1.389074591468186669E-16 ) ) ;
#293 = ORIENTED_EDGE ( 'NONE', *, *, #48, .T. ) ;
#294 = SURFACE_STYLE_FILL_AREA ( #146 ) ;
#295 = ORIENTED_EDGE ( 'NONE', *, *, #299, .F. ) ;
#296 = EDGE_LOOP ( 'NONE', ( #120, #54, #297, #229 ) ) ;
#297 = ORIENTED_EDGE ( 'NONE', *, *, #167, .F. ) ;
#298 = EDGE_LOOP ( 'NONE', ( #203, #293, #129, #247 ) ) ;
#299 = EDGE_CURVE ( 'NONE', #92, #180, #37, .T. ) ;
#300 = DIRECTION ( 'NONE',  ( -1.224646799147353207E-16, 1.000000000000000000, 1.499759782661857882E-32 ) ) ;
#301 = FACE_OUTER_BOUND ( 'NONE', #275, .T. ) ;
#302 = UNCERTAINTY_MEASURE_WITH_UNIT (LENGTH_MEASURE( 1.000000000000000082E-05 ), #175, 'distance_accuracy_value', 'NONE');
#303 = DIRECTION ( 'NONE',  ( 1.000000000000000000, 0.000000000000000000, 0.000000000000000000 ) ) ;
#304 = DIRECTION ( 'NONE',  ( -0.000000000000000000, -0.000000000000000000, -1.000000000000000000 ) ) ;
#305 = ADVANCED_FACE ( 'NONE', ( #2 ), #100, .T. ) ;
#306 = CARTESIAN_POINT ( 'NONE',  ( 12.48833926291794150, 1.529380470499867164E-15, 3.811660737074127336 ) ) ;
#307 = CARTESIAN_POINT ( 'NONE',  ( -12.49999999999998579, 1.543054966925664089E-15, 0.000000000000000000 ) ) ;
#308 =( GEOMETRIC_REPRESENTATION_CONTEXT ( 3 ) GLOBAL_UNCERTAINTY_ASSIGNED_CONTEXT ( ( #6 ) ) GLOBAL_UNIT_ASSIGNED_CONTEXT ( ( #221, #1, #5 ) ) REPRESENTATION_CONTEXT ( 'NONE', 'WORKASPACE' ) );
#309 = AXIS2_PLACEMENT_3D ( 'NONE', #96, #71, #69 ) ;
#310 = DIRECTION ( 'NONE',  ( -0.000000000000000000, -0.000000000000000000, 1.000000000000000000 ) ) ;
#311 = EDGE_CURVE ( 'NONE', #103, #85, #114, .T. ) ;
#312 = AXIS2_PLACEMENT_3D ( 'NONE', #133, #14, #109 ) ;
#313 = FACE_OUTER_BOUND ( 'NONE', #296, .T. ) ;
#314 = DIRECTION ( 'NONE',  ( -0.000000000000000000, -0.000000000000000000, -1.000000000000000000 ) ) ;
#315 = PRODUCT_DEFINITION_SHAPE ( 'NONE', 'NONE',  #33 ) ;
#316 = CARTESIAN_POINT ( 'NONE',  ( 0.000000000000000000, 0.000000000000000000, 3.600000000000022737 ) ) ;
#317 = EDGE_CURVE ( 'NONE', #85, #92, #201, .T. ) ;
#318 = CARTESIAN_POINT ( 'NONE',  ( 0.000000000000000000, 0.000000000000000000, 0.000000000000000000 ) ) ;
ENDSEC;
END-ISO-10303-21;
