ISO-10303-21;
HEADER;
FILE_DESCRIPTION (( 'STEP AP214' ),
    '1' );
FILE_NAME ('GL7AL2-025-012-IR2.STEP',
    '2024-07-21T09:58:57',
    ( '' ),
    ( '' ),
    'SwSTEP 2.0',
    'SolidWorks 2022',
    '' );
FILE_SCHEMA (( 'AUTOMOTIVE_DESIGN' ));
ENDSEC;

DATA;
#1 = FILL_AREA_STYLE_COLOUR ( '', #64 ) ;
#2 = VERTEX_POINT ( 'NONE', #190 ) ;
#3 = ORIENTED_EDGE ( 'NONE', *, *, #46, .T. ) ;
#4 = EDGE_CURVE ( 'NONE', #147, #306, #160, .T. ) ;
#5 = VECTOR ( 'NONE', #140, 1000.000000000000000 ) ;
#6 = LINE ( 'NONE', #210, #107 ) ;
#7 = DIRECTION ( 'NONE',  ( -1.224646799147352714E-16, 0.000000000000000000, -1.000000000000000000 ) ) ;
#8 = ORIENTED_EDGE ( 'NONE', *, *, #45, .F. ) ;
#9 = DIRECTION ( 'NONE',  ( -1.224646799147353207E-16, -0.000000000000000000, -1.000000000000000000 ) ) ;
#10 = ADVANCED_FACE ( 'NONE', ( #90 ), #286, .F. ) ;
#11 = EDGE_LOOP ( 'NONE', ( #170, #17, #272, #139 ) ) ;
#12 =( NAMED_UNIT ( * ) SI_UNIT ( $, .STERADIAN. ) SOLID_ANGLE_UNIT ( ) );
#13 = AXIS2_PLACEMENT_3D ( 'NONE', #26, #34, #89 ) ;
#14 = AXIS2_PLACEMENT_3D ( 'NONE', #149, #101, #200 ) ;
#15 = DIRECTION ( 'NONE',  ( 1.000000000000000000, 0.000000000000000000, 0.000000000000000000 ) ) ;
#16 = ORIENTED_EDGE ( 'NONE', *, *, #120, .T. ) ;
#17 = ORIENTED_EDGE ( 'NONE', *, *, #265, .T. ) ;
#18 = EDGE_CURVE ( 'NONE', #159, #93, #82, .T. ) ;
#19 = DIRECTION ( 'NONE',  ( 1.000000000000000000, 0.000000000000000000, -1.388420818220522958E-16 ) ) ;
#20 = CIRCLE ( 'NONE', #267, 12.49999999999999645 ) ;
#21 = CARTESIAN_POINT ( 'NONE',  ( -4.482252624637014068E-16, 0.000000000000000000, 2.005780284970554384 ) ) ;
#22 = DIRECTION ( 'NONE',  ( 1.000000000000000000, 0.000000000000000000, -0.000000000000000000 ) ) ;
#23 = DIRECTION ( 'NONE',  ( 1.000000000000000000, 0.000000000000000000, 0.000000000000000000 ) ) ;
#24 = AXIS2_PLACEMENT_3D ( 'NONE', #184, #7, #250 ) ;
#25 =( GEOMETRIC_REPRESENTATION_CONTEXT ( 3 ) GLOBAL_UNCERTAINTY_ASSIGNED_CONTEXT ( ( #73 ) ) GLOBAL_UNIT_ASSIGNED_CONTEXT ( ( #215, #35, #280 ) ) REPRESENTATION_CONTEXT ( 'NONE', 'WORKASPACE' ) );
#26 = CARTESIAN_POINT ( 'NONE',  ( 0.000000000000000000, 0.000000000000000000, -11.63999999999999879 ) ) ;
#27 = ORIENTED_EDGE ( 'NONE', *, *, #180, .F. ) ;
#28 =( NAMED_UNIT ( * ) PLANE_ANGLE_UNIT ( ) SI_UNIT ( $, .RADIAN. ) );
#29 = EDGE_CURVE ( 'NONE', #93, #311, #238, .T. ) ;
#30 = DIRECTION ( 'NONE',  ( -0.000000000000000000, -0.000000000000000000, -1.000000000000000000 ) ) ;
#31 = EDGE_LOOP ( 'NONE', ( #308, #84, #218, #131 ) ) ;
#32 = AXIS2_PLACEMENT_3D ( 'NONE', #57, #177, #298 ) ;
#33 = EDGE_CURVE ( 'NONE', #147, #93, #303, .T. ) ;
#34 = DIRECTION ( 'NONE',  ( 0.000000000000000000, 1.000000000000000000, -0.000000000000000000 ) ) ;
#35 =( NAMED_UNIT ( * ) PLANE_ANGLE_UNIT ( ) SI_UNIT ( $, .RADIAN. ) );
#36 = VECTOR ( 'NONE', #275, 1000.000000000000114 ) ;
#37 = ORIENTED_EDGE ( 'NONE', *, *, #79, .T. ) ;
#38 = PRESENTATION_STYLE_ASSIGNMENT (( #145 ) ) ;
#39 = EDGE_LOOP ( 'NONE', ( #119, #81, #262, #297 ) ) ;
#40 = PRODUCT_RELATED_PRODUCT_CATEGORY ( 'part', '', ( #110 ) ) ;
#41 = CARTESIAN_POINT ( 'NONE',  ( 0.000000000000000000, 0.000000000000000000, -11.63999999999999879 ) ) ;
#42 = DIRECTION ( 'NONE',  ( 1.000000000000000000, 0.000000000000000000, -1.195183497228115281E-16 ) ) ;
#43 = EDGE_LOOP ( 'NONE', ( #51, #211, #109, #8 ) ) ;
#44 = AXIS2_PLACEMENT_3D ( 'NONE', #206, #59, #137 ) ;
#45 = EDGE_CURVE ( 'NONE', #311, #300, #174, .T. ) ;
#46 = EDGE_CURVE ( 'NONE', #186, #143, #20, .T. ) ;
#47 = AXIS2_PLACEMENT_3D ( 'NONE', #243, #49, #22 ) ;
#48 = PRODUCT_CONTEXT ( 'NONE', #144, 'mechanical' ) ;
#49 = DIRECTION ( 'NONE',  ( 0.000000000000000000, 0.000000000000000000, 1.000000000000000000 ) ) ;
#50 = FACE_OUTER_BOUND ( 'NONE', #39, .T. ) ;
#51 = ORIENTED_EDGE ( 'NONE', *, *, #100, .F. ) ;
#52 = CIRCLE ( 'NONE', #99, 17.80000000000000071 ) ;
#53 = EDGE_CURVE ( 'NONE', #143, #186, #154, .T. ) ;
#54 = CARTESIAN_POINT ( 'NONE',  ( 0.000000000000000000, 0.000000000000000000, 2.000000000000000000 ) ) ;
#55 = CARTESIAN_POINT ( 'NONE',  ( 8.700166637002371198E-17, 0.000000000000000000, 2.710422518807851677 ) ) ;
#56 = ORIENTED_EDGE ( 'NONE', *, *, #141, .F. ) ;
#57 = CARTESIAN_POINT ( 'NONE',  ( 0.000000000000000000, 0.000000000000000000, 0.2000000000000022593 ) ) ;
#58 = ORIENTED_EDGE ( 'NONE', *, *, #309, .F. ) ;
#59 = DIRECTION ( 'NONE',  ( -0.000000000000000000, -0.000000000000000000, -1.000000000000000000 ) ) ;
#60 = PRODUCT_DEFINITION_SHAPE ( 'NONE', 'NONE',  #95 ) ;
#61 = ADVANCED_BREP_SHAPE_REPRESENTATION ( 'GL7AL2-025-012-IR2', ( #196, #14 ), #25 ) ;
#62 = DIRECTION ( 'NONE',  ( -1.000000000000000000, -1.224646799147353207E-16, 0.000000000000000000 ) ) ;
#63 = VERTEX_POINT ( 'NONE', #175 ) ;
#64 = COLOUR_RGB ( '',1.000000000000000000, 1.000000000000000000, 1.000000000000000000 ) ;
#65 = DIRECTION ( 'NONE',  ( -1.224646799147352714E-16, 0.000000000000000000, -1.000000000000000000 ) ) ;
#66 = CARTESIAN_POINT ( 'NONE',  ( 8.700166637002371198E-17, 0.000000000000000000, 2.710422518807851677 ) ) ;
#67 = ORIENTED_EDGE ( 'NONE', *, *, #288, .T. ) ;
#68 = EDGE_LOOP ( 'NONE', ( #115, #278, #56 ) ) ;
#69 = EDGE_CURVE ( 'NONE', #93, #159, #202, .T. ) ;
#70 = VECTOR ( 'NONE', #258, 1000.000000000000114 ) ;
#71 = CIRCLE ( 'NONE', #266, 10.53116202190871675 ) ;
#72 = FACE_OUTER_BOUND ( 'NONE', #229, .T. ) ;
#73 = UNCERTAINTY_MEASURE_WITH_UNIT (LENGTH_MEASURE( 1.000000000000000082E-05 ), #215, 'distance_accuracy_value', 'NONE');
#74 = PLANE ( 'NONE',  #47 ) ;
#75 = DIRECTION ( 'NONE',  ( -0.7071067811865474617, 8.659560562354932858E-17, 0.7071067811865474617 ) ) ;
#76 =( GEOMETRIC_REPRESENTATION_CONTEXT ( 3 ) GLOBAL_UNCERTAINTY_ASSIGNED_CONTEXT ( ( #268 ) ) GLOBAL_UNIT_ASSIGNED_CONTEXT ( ( #293, #28, #228 ) ) REPRESENTATION_CONTEXT ( 'NONE', 'WORKASPACE' ) );
#77 = DIRECTION ( 'NONE',  ( -0.000000000000000000, -0.000000000000000000, -1.000000000000000000 ) ) ;
#78 = EDGE_LOOP ( 'NONE', ( #117, #231, #256, #241 ) ) ;
#79 = EDGE_CURVE ( 'NONE', #306, #216, #178, .T. ) ;
#80 = DIRECTION ( 'NONE',  ( 1.224646799147352714E-16, -0.000000000000000000, 1.000000000000000000 ) ) ;
#81 = ORIENTED_EDGE ( 'NONE', *, *, #18, .T. ) ;
#82 = CIRCLE ( 'NONE', #207, 12.69999999999999929 ) ;
#83 = PRESENTATION_STYLE_ASSIGNMENT (( #106 ) ) ;
#84 = ORIENTED_EDGE ( 'NONE', *, *, #4, .F. ) ;
#85 = CARTESIAN_POINT ( 'NONE',  ( -12.49999999999999645, 1.543054966925664878E-15, 0.000000000000000000 ) ) ;
#86 = DIRECTION ( 'NONE',  ( 0.000000000000000000, -1.000000000000000000, 0.000000000000000000 ) ) ;
#87 = VECTOR ( 'NONE', #75, 1000.000000000000114 ) ;
#88 =( NAMED_UNIT ( * ) PLANE_ANGLE_UNIT ( ) SI_UNIT ( $, .RADIAN. ) );
#89 = DIRECTION ( 'NONE',  ( -1.000000000000000000, 0.000000000000000000, 9.745637505487680998E-17 ) ) ;
#90 = FACE_OUTER_BOUND ( 'NONE', #78, .T. ) ;
#91 = ADVANCED_FACE ( 'NONE', ( #72 ), #74, .F. ) ;
#92 = ORIENTED_EDGE ( 'NONE', *, *, #33, .F. ) ;
#93 = VERTEX_POINT ( 'NONE', #148 ) ;
#94 = CARTESIAN_POINT ( 'NONE',  ( 12.69999999999999929, 1.555301434917138433E-15, 0.2000000000000022593 ) ) ;
#95 = PRODUCT_DEFINITION ( 'Î´Öª', '', #214, #316 ) ;
#96 = CARTESIAN_POINT ( 'NONE',  ( -4.482252624638533612E-16, 0.000000000000000000, 2.005780284969311822 ) ) ;
#97 = DIRECTION ( 'NONE',  ( -1.000000000000000000, 0.000000000000000000, 1.388420818220515069E-16 ) ) ;
#98 = UNCERTAINTY_MEASURE_WITH_UNIT (LENGTH_MEASURE( 1.000000000000000082E-05 ), #118, 'distance_accuracy_value', 'NONE');
#99 = AXIS2_PLACEMENT_3D ( 'NONE', #41, #255, #62 ) ;
#100 = EDGE_CURVE ( 'NONE', #143, #311, #290, .T. ) ;
#101 = DIRECTION ( 'NONE',  ( 0.000000000000000000, 0.000000000000000000, 1.000000000000000000 ) ) ;
#102 = APPLICATION_PROTOCOL_DEFINITION ( 'draft international standard', 'automotive_design', 1998, #232 ) ;
#103 = AXIS2_PLACEMENT_3D ( 'NONE', #54, #30, #128 ) ;
#104 = CARTESIAN_POINT ( 'NONE',  ( -12.49421971504045636, 0.000000000000000000, 2.005780284969313598 ) ) ;
#105 = ADVANCED_FACE ( 'NONE', ( #152 ), #230, .T. ) ;
#106 = SURFACE_STYLE_USAGE ( .BOTH. , #249 ) ;
#107 = VECTOR ( 'NONE', #294, 1000.000000000000114 ) ;
#108 = DIRECTION ( 'NONE',  ( -0.000000000000000000, -0.000000000000000000, 1.000000000000000000 ) ) ;
#109 = ORIENTED_EDGE ( 'NONE', *, *, #237, .T. ) ;
#110 = PRODUCT ( 'GL7AL2-025-012-IR2', 'GL7AL2-025-012-IR2', '', ( #48 ) ) ;
#111 = FILL_AREA_STYLE ('',( #189 ) ) ;
#112 = EDGE_LOOP ( 'NONE', ( #179, #168, #182, #162 ) ) ;
#113 = AXIS2_PLACEMENT_3D ( 'NONE', #318, #192, #15 ) ;
#114 = DIRECTION ( 'NONE',  ( -1.000000000000000000, 0.000000000000000000, 1.224646799147353207E-16 ) ) ;
#115 = ORIENTED_EDGE ( 'NONE', *, *, #288, .F. ) ;
#116 = FACE_OUTER_BOUND ( 'NONE', #248, .T. ) ;
#117 = ORIENTED_EDGE ( 'NONE', *, *, #79, .F. ) ;
#118 =( LENGTH_UNIT ( ) NAMED_UNIT ( * ) SI_UNIT ( .MILLI., .METRE. ) );
#119 = ORIENTED_EDGE ( 'NONE', *, *, #265, .F. ) ;
#120 = EDGE_CURVE ( 'NONE', #306, #159, #285, .T. ) ;
#121 = APPLICATION_PROTOCOL_DEFINITION ( 'draft international standard', 'automotive_design', 1998, #144 ) ;
#122 = CIRCLE ( 'NONE', #239, 3.665817307692316174 ) ;
#123 =( GEOMETRIC_REPRESENTATION_CONTEXT ( 3 ) GLOBAL_UNCERTAINTY_ASSIGNED_CONTEXT ( ( #98 ) ) GLOBAL_UNIT_ASSIGNED_CONTEXT ( ( #118, #88, #12 ) ) REPRESENTATION_CONTEXT ( 'NONE', 'WORKASPACE' ) );
#124 = CARTESIAN_POINT ( 'NONE',  ( -12.69999999999999929, 0.000000000000000000, 2.000000000000000000 ) ) ;
#125 = SHAPE_DEFINITION_REPRESENTATION ( #60, #61 ) ;
#126 = DIRECTION ( 'NONE',  ( -1.224646799147352714E-16, 0.000000000000000000, -1.000000000000000000 ) ) ;
#127 = EDGE_CURVE ( 'NONE', #306, #147, #225, .T. ) ;
#128 = DIRECTION ( 'NONE',  ( -1.000000000000000000, 0.000000000000000000, 0.000000000000000000 ) ) ;
#129 = CONICAL_SURFACE ( 'NONE', #32, 12.69999999999999929, 0.7853981633974482790 ) ;
#130 = CARTESIAN_POINT ( 'NONE',  ( 12.49421971502944295, 1.530100618185456270E-15, 2.005780284970552607 ) ) ;
#131 = ORIENTED_EDGE ( 'NONE', *, *, #18, .F. ) ;
#132 = DIRECTION ( 'NONE',  ( -1.224646799147353207E-16, -0.000000000000000000, -1.000000000000000000 ) ) ;
#133 = ORIENTED_EDGE ( 'NONE', *, *, #309, .T. ) ;
#134 = FACE_OUTER_BOUND ( 'NONE', #11, .T. ) ;
#135 = AXIS2_PLACEMENT_3D ( 'NONE', #21, #314, #97 ) ;
#136 = AXIS2_PLACEMENT_3D ( 'NONE', #305, #261, #233 ) ;
#137 = DIRECTION ( 'NONE',  ( -1.000000000000000000, 0.000000000000000000, 0.000000000000000000 ) ) ;
#138 = SPHERICAL_SURFACE ( 'NONE', #136, 17.80000000000000071 ) ;
#139 = ORIENTED_EDGE ( 'NONE', *, *, #29, .F. ) ;
#140 = DIRECTION ( 'NONE',  ( -0.000000000000000000, -0.000000000000000000, -1.000000000000000000 ) ) ;
#141 = EDGE_CURVE ( 'NONE', #2, #216, #295, .T. ) ;
#142 = AXIS2_PLACEMENT_3D ( 'NONE', #279, #161, #263 ) ;
#143 = VERTEX_POINT ( 'NONE', #85 ) ;
#144 = APPLICATION_CONTEXT ( 'automotive_design' ) ;
#145 = SURFACE_STYLE_USAGE ( .BOTH. , #193 ) ;
#146 = AXIS2_PLACEMENT_3D ( 'NONE', #199, #222, #289 ) ;
#147 = VERTEX_POINT ( 'NONE', #104 ) ;
#148 = CARTESIAN_POINT ( 'NONE',  ( -12.69999999999999929, 0.000000000000000000, 1.800000000000000933 ) ) ;
#149 = CARTESIAN_POINT ( 'NONE',  ( 0.000000000000000000, 0.000000000000000000, 0.000000000000000000 ) ) ;
#150 = CARTESIAN_POINT ( 'NONE',  ( 0.000000000000000000, 0.000000000000000000, 0.000000000000000000 ) ) ;
#151 = AXIS2_PLACEMENT_3D ( 'NONE', #271, #108, #299 ) ;
#152 = FACE_OUTER_BOUND ( 'NONE', #31, .T. ) ;
#153 = CARTESIAN_POINT ( 'NONE',  ( -12.69999999999999929, 0.000000000000000000, 5.665817307692317506 ) ) ;
#154 = CIRCLE ( 'NONE', #315, 12.49999999999999645 ) ;
#155 = FACE_OUTER_BOUND ( 'NONE', #112, .T. ) ;
#156 = FACE_OUTER_BOUND ( 'NONE', #43, .T. ) ;
#157 = ADVANCED_FACE ( 'NONE', ( #50 ), #158, .T. ) ;
#158 = CYLINDRICAL_SURFACE ( 'NONE', #44, 12.69999999999999929 ) ;
#159 = VERTEX_POINT ( 'NONE', #203 ) ;
#160 = CIRCLE ( 'NONE', #317, 12.49421971502937367 ) ;
#161 = DIRECTION ( 'NONE',  ( 0.000000000000000000, -1.000000000000000000, 0.000000000000000000 ) ) ;
#162 = ORIENTED_EDGE ( 'NONE', *, *, #237, .F. ) ;
#163 = ADVANCED_FACE ( 'NONE', ( #156 ), #129, .T. ) ;
#164 = CARTESIAN_POINT ( 'NONE',  ( -12.49421971502944295, 0.000000000000000000, 2.005780284970556160 ) ) ;
#165 = ORIENTED_EDGE ( 'NONE', *, *, #127, .F. ) ;
#166 = AXIS2_PLACEMENT_3D ( 'NONE', #169, #281, #194 ) ;
#167 = SURFACE_STYLE_FILL_AREA ( #111 ) ;
#168 = ORIENTED_EDGE ( 'NONE', *, *, #100, .T. ) ;
#169 = CARTESIAN_POINT ( 'NONE',  ( 0.000000000000000000, 0.000000000000000000, 5.665817307692315730 ) ) ;
#170 = ORIENTED_EDGE ( 'NONE', *, *, #69, .T. ) ;
#171 = MECHANICAL_DESIGN_GEOMETRIC_PRESENTATION_REPRESENTATION (  '', ( #213 ), #76 ) ;
#172 = CARTESIAN_POINT ( 'NONE',  ( 0.000000000000000000, 0.000000000000000000, 0.000000000000000000 ) ) ;
#173 = CARTESIAN_POINT ( 'NONE',  ( 0.000000000000000000, 0.000000000000000000, 0.2000000000000022593 ) ) ;
#174 = CIRCLE ( 'NONE', #301, 12.69999999999999929 ) ;
#175 = CARTESIAN_POINT ( 'NONE',  ( 1.089935651241144357E-15, 0.000000000000000000, 6.160000000000000142 ) ) ;
#176 = ORIENTED_EDGE ( 'NONE', *, *, #292, .F. ) ;
#177 = DIRECTION ( 'NONE',  ( -0.000000000000000000, -0.000000000000000000, 1.000000000000000000 ) ) ;
#178 = CIRCLE ( 'NONE', #146, 3.665817307692316174 ) ;
#179 = ORIENTED_EDGE ( 'NONE', *, *, #53, .F. ) ;
#180 = EDGE_CURVE ( 'NONE', #147, #2, #122, .T. ) ;
#181 = CARTESIAN_POINT ( 'NONE',  ( 10.53116202190871675, 1.409898002164361830E-15, 2.710422518807850345 ) ) ;
#182 = ORIENTED_EDGE ( 'NONE', *, *, #259, .F. ) ;
#183 = CARTESIAN_POINT ( 'NONE',  ( -4.482252624638533612E-16, 0.000000000000000000, 2.005780284969311822 ) ) ;
#184 = CARTESIAN_POINT ( 'NONE',  ( -4.482252624637014068E-16, 0.000000000000000000, 2.005780284970554384 ) ) ;
#185 = DIRECTION ( 'NONE',  ( -1.000000000000000000, 0.000000000000000000, 1.235421698266492317E-16 ) ) ;
#186 = VERTEX_POINT ( 'NONE', #226 ) ;
#187 = LINE ( 'NONE', #310, #5 ) ;
#188 = DIRECTION ( 'NONE',  ( 1.224646799147352714E-16, -0.000000000000000000, 1.000000000000000000 ) ) ;
#189 = FILL_AREA_STYLE_COLOUR ( '', #242 ) ;
#190 = CARTESIAN_POINT ( 'NONE',  ( -10.53116202190871675, 0.000000000000000000, 2.710422518807853010 ) ) ;
#191 = CLOSED_SHELL ( 'NONE', ( #219, #240, #304, #270, #220, #157, #91, #10, #252, #163, #105 ) ) ;
#192 = DIRECTION ( 'NONE',  ( -0.000000000000000000, -0.000000000000000000, 1.000000000000000000 ) ) ;
#193 = SURFACE_SIDE_STYLE ('',( #167 ) ) ;
#194 = DIRECTION ( 'NONE',  ( -1.000000000000000000, 0.000000000000000000, 1.224646799147353207E-16 ) ) ;
#195 = CARTESIAN_POINT ( 'NONE',  ( -12.69999999999999929, 1.555301434917138433E-15, 0.2000000000000022593 ) ) ;
#196 = MANIFOLD_SOLID_BREP ( 'µ¹½Ç2', #191 ) ;
#197 = AXIS2_PLACEMENT_3D ( 'NONE', #283, #307, #114 ) ;
#198 = DIRECTION ( 'NONE',  ( 1.000000000000000000, 0.000000000000000000, -1.195183497228115281E-16 ) ) ;
#199 = CARTESIAN_POINT ( 'NONE',  ( 12.69999999999999929, 1.555301434917138433E-15, 5.665817307692314841 ) ) ;
#200 = DIRECTION ( 'NONE',  ( 1.000000000000000000, 0.000000000000000000, 0.000000000000000000 ) ) ;
#201 = CONICAL_SURFACE ( 'NONE', #24, 12.49421971502944295, 0.7853981633974524978 ) ;
#202 = CIRCLE ( 'NONE', #246, 12.69999999999999929 ) ;
#203 = CARTESIAN_POINT ( 'NONE',  ( 12.69999999999999929, 1.555301434917138433E-15, 1.799999999999998046 ) ) ;
#204 = EDGE_LOOP ( 'NONE', ( #165, #16, #209, #92 ) ) ;
#205 = DIRECTION ( 'NONE',  ( 0.000000000000000000, 0.000000000000000000, -1.000000000000000000 ) ) ;
#206 = CARTESIAN_POINT ( 'NONE',  ( 0.000000000000000000, 0.000000000000000000, 2.000000000000000000 ) ) ;
#207 = AXIS2_PLACEMENT_3D ( 'NONE', #212, #65, #42 ) ;
#208 = DIRECTION ( 'NONE',  ( 1.000000000000000000, 0.000000000000000000, -1.388420818220522958E-16 ) ) ;
#209 = ORIENTED_EDGE ( 'NONE', *, *, #69, .F. ) ;
#210 = CARTESIAN_POINT ( 'NONE',  ( 12.69999999999999929, 0.000000000000000000, 0.2000000000000022593 ) ) ;
#211 = ORIENTED_EDGE ( 'NONE', *, *, #46, .F. ) ;
#212 = CARTESIAN_POINT ( 'NONE',  ( 0.000000000000000000, 0.000000000000000000, 1.799999999999999600 ) ) ;
#213 = STYLED_ITEM ( 'NONE', ( #83 ), #196 ) ;
#214 = PRODUCT_DEFINITION_FORMATION_WITH_SPECIFIED_SOURCE ( 'ÈÎºÎ', '', #110, .NOT_KNOWN. ) ;
#215 =( LENGTH_UNIT ( ) NAMED_UNIT ( * ) SI_UNIT ( .MILLI., .METRE. ) );
#216 = VERTEX_POINT ( 'NONE', #181 ) ;
#217 = FACE_OUTER_BOUND ( 'NONE', #68, .T. ) ;
#218 = ORIENTED_EDGE ( 'NONE', *, *, #33, .T. ) ;
#219 = ADVANCED_FACE ( 'NONE', ( #274 ), #201, .T. ) ;
#220 = ADVANCED_FACE ( 'NONE', ( #134 ), #245, .T. ) ;
#221 = DIRECTION ( 'NONE',  ( 1.000000000000000000, 0.000000000000000000, 0.000000000000000000 ) ) ;
#222 = DIRECTION ( 'NONE',  ( -1.224646799147353207E-16, 1.000000000000000000, 1.499759782661857608E-32 ) ) ;
#223 = CIRCLE ( 'NONE', #113, 12.69999999999999929 ) ;
#224 = DIRECTION ( 'NONE',  ( -0.000000000000000000, -0.000000000000000000, -1.000000000000000000 ) ) ;
#225 = CIRCLE ( 'NONE', #312, 12.49421971502937367 ) ;
#226 = CARTESIAN_POINT ( 'NONE',  ( 12.49999999999999645, 0.000000000000000000, 0.000000000000000000 ) ) ;
#227 = DIRECTION ( 'NONE',  ( -1.000000000000000000, 0.000000000000000000, 1.235421698266492317E-16 ) ) ;
#228 =( NAMED_UNIT ( * ) SI_UNIT ( $, .STERADIAN. ) SOLID_ANGLE_UNIT ( ) );
#229 = EDGE_LOOP ( 'NONE', ( #3, #264 ) ) ;
#230 = CONICAL_SURFACE ( 'NONE', #135, 12.49421971502944295, 0.7853981633974524978 ) ;
#231 = ORIENTED_EDGE ( 'NONE', *, *, #127, .T. ) ;
#232 = APPLICATION_CONTEXT ( 'automotive_design' ) ;
#233 = DIRECTION ( 'NONE',  ( -1.000000000000000000, 0.000000000000000000, 9.745637505487680998E-17 ) ) ;
#234 = ORIENTED_EDGE ( 'NONE', *, *, #4, .T. ) ;
#235 = CIRCLE ( 'NONE', #142, 17.80000000000000426 ) ;
#236 = PRESENTATION_LAYER_ASSIGNMENT (  '', '', ( #313 ) ) ;
#237 = EDGE_CURVE ( 'NONE', #186, #300, #6, .T. ) ;
#238 = LINE ( 'NONE', #124, #273 ) ;
#239 = AXIS2_PLACEMENT_3D ( 'NONE', #153, #86, #205 ) ;
#240 = ADVANCED_FACE ( 'NONE', ( #155 ), #282, .T. ) ;
#241 = ORIENTED_EDGE ( 'NONE', *, *, #141, .T. ) ;
#242 = COLOUR_RGB ( '',1.000000000000000000, 1.000000000000000000, 1.000000000000000000 ) ;
#243 = CARTESIAN_POINT ( 'NONE',  ( 0.000000000000000000, 0.000000000000000000, 0.000000000000000000 ) ) ;
#244 = DIRECTION ( 'NONE',  ( 1.000000000000000000, 0.000000000000000000, 0.000000000000000000 ) ) ;
#245 = CYLINDRICAL_SURFACE ( 'NONE', #103, 12.69999999999999929 ) ;
#246 = AXIS2_PLACEMENT_3D ( 'NONE', #269, #126, #198 ) ;
#247 = SPHERICAL_SURFACE ( 'NONE', #13, 17.80000000000000071 ) ;
#248 = EDGE_LOOP ( 'NONE', ( #234, #37, #133, #27 ) ) ;
#249 = SURFACE_SIDE_STYLE ('',( #253 ) ) ;
#250 = DIRECTION ( 'NONE',  ( -1.000000000000000000, 0.000000000000000000, 1.388420818220515069E-16 ) ) ;
#251 = EDGE_LOOP ( 'NONE', ( #176, #67, #58 ) ) ;
#252 = ADVANCED_FACE ( 'NONE', ( #276 ), #247, .T. ) ;
#253 = SURFACE_STYLE_FILL_AREA ( #296 ) ;
#254 = AXIS2_PLACEMENT_3D ( 'NONE', #55, #132, #227 ) ;
#255 = DIRECTION ( 'NONE',  ( -1.224646799147353207E-16, 1.000000000000000000, 1.499759782661857608E-32 ) ) ;
#256 = ORIENTED_EDGE ( 'NONE', *, *, #180, .T. ) ;
#257 = CARTESIAN_POINT ( 'NONE',  ( 12.49421971504045636, 1.530100618186805222E-15, 2.005780284969310490 ) ) ;
#258 = DIRECTION ( 'NONE',  ( -0.7071067811865506814, 0.000000000000000000, -0.7071067811865443531 ) ) ;
#259 = EDGE_CURVE ( 'NONE', #300, #311, #223, .T. ) ;
#260 = TOROIDAL_SURFACE ( 'NONE', #197, 12.69999999999999929, 3.665817307692316174 ) ;
#261 = DIRECTION ( 'NONE',  ( 0.000000000000000000, 1.000000000000000000, -0.000000000000000000 ) ) ;
#262 = ORIENTED_EDGE ( 'NONE', *, *, #29, .T. ) ;
#263 = DIRECTION ( 'NONE',  ( 0.000000000000000000, 0.000000000000000000, -1.000000000000000000 ) ) ;
#264 = ORIENTED_EDGE ( 'NONE', *, *, #53, .T. ) ;
#265 = EDGE_CURVE ( 'NONE', #159, #300, #187, .T. ) ;
#266 = AXIS2_PLACEMENT_3D ( 'NONE', #66, #9, #185 ) ;
#267 = AXIS2_PLACEMENT_3D ( 'NONE', #172, #224, #221 ) ;
#268 = UNCERTAINTY_MEASURE_WITH_UNIT (LENGTH_MEASURE( 1.000000000000000082E-05 ), #293, 'distance_accuracy_value', 'NONE');
#269 = CARTESIAN_POINT ( 'NONE',  ( 0.000000000000000000, 0.000000000000000000, 1.799999999999999600 ) ) ;
#270 = ADVANCED_FACE ( 'NONE', ( #116 ), #260, .F. ) ;
#271 = CARTESIAN_POINT ( 'NONE',  ( 0.000000000000000000, 0.000000000000000000, 0.2000000000000022593 ) ) ;
#272 = ORIENTED_EDGE ( 'NONE', *, *, #259, .T. ) ;
#273 = VECTOR ( 'NONE', #284, 1000.000000000000000 ) ;
#274 = FACE_OUTER_BOUND ( 'NONE', #204, .T. ) ;
#275 = DIRECTION ( 'NONE',  ( 0.7071067811865504593, 8.659560562354968603E-17, -0.7071067811865445751 ) ) ;
#276 = FACE_OUTER_BOUND ( 'NONE', #251, .T. ) ;
#277 = CARTESIAN_POINT ( 'NONE',  ( -12.69999999999999929, 0.000000000000000000, 0.2000000000000022593 ) ) ;
#278 = ORIENTED_EDGE ( 'NONE', *, *, #292, .T. ) ;
#279 = CARTESIAN_POINT ( 'NONE',  ( 0.000000000000000000, 0.000000000000000000, -11.63999999999999879 ) ) ;
#280 =( NAMED_UNIT ( * ) SI_UNIT ( $, .STERADIAN. ) SOLID_ANGLE_UNIT ( ) );
#281 = DIRECTION ( 'NONE',  ( -1.224646799147353207E-16, -0.000000000000000000, -1.000000000000000000 ) ) ;
#282 = CONICAL_SURFACE ( 'NONE', #151, 12.69999999999999929, 0.7853981633974482790 ) ;
#283 = CARTESIAN_POINT ( 'NONE',  ( 0.000000000000000000, 0.000000000000000000, 5.665817307692315730 ) ) ;
#284 = DIRECTION ( 'NONE',  ( -0.000000000000000000, -0.000000000000000000, -1.000000000000000000 ) ) ;
#285 = LINE ( 'NONE', #130, #36 ) ;
#286 = TOROIDAL_SURFACE ( 'NONE', #166, 12.69999999999999929, 3.665817307692316174 ) ;
#287 = DIRECTION ( 'NONE',  ( -0.000000000000000000, -0.000000000000000000, 1.000000000000000000 ) ) ;
#288 = EDGE_CURVE ( 'NONE', #63, #2, #235, .T. ) ;
#289 = DIRECTION ( 'NONE',  ( -1.000000000000000000, -1.224646799147353454E-16, 0.000000000000000000 ) ) ;
#290 = LINE ( 'NONE', #195, #87 ) ;
#291 = PRESENTATION_LAYER_ASSIGNMENT (  '', '', ( #213 ) ) ;
#292 = EDGE_CURVE ( 'NONE', #63, #216, #52, .T. ) ;
#293 =( LENGTH_UNIT ( ) NAMED_UNIT ( * ) SI_UNIT ( .MILLI., .METRE. ) );
#294 = DIRECTION ( 'NONE',  ( 0.7071067811865474617, 0.000000000000000000, 0.7071067811865474617 ) ) ;
#295 = CIRCLE ( 'NONE', #254, 10.53116202190871675 ) ;
#296 = FILL_AREA_STYLE ('',( #1 ) ) ;
#297 = ORIENTED_EDGE ( 'NONE', *, *, #45, .T. ) ;
#298 = DIRECTION ( 'NONE',  ( 1.000000000000000000, 0.000000000000000000, 0.000000000000000000 ) ) ;
#299 = DIRECTION ( 'NONE',  ( 1.000000000000000000, 0.000000000000000000, 0.000000000000000000 ) ) ;
#300 = VERTEX_POINT ( 'NONE', #94 ) ;
#301 = AXIS2_PLACEMENT_3D ( 'NONE', #173, #287, #23 ) ;
#302 = MECHANICAL_DESIGN_GEOMETRIC_PRESENTATION_REPRESENTATION (  '', ( #313 ), #123 ) ;
#303 = LINE ( 'NONE', #164, #70 ) ;
#304 = ADVANCED_FACE ( 'NONE', ( #217 ), #138, .T. ) ;
#305 = CARTESIAN_POINT ( 'NONE',  ( 0.000000000000000000, 0.000000000000000000, -11.63999999999999879 ) ) ;
#306 = VERTEX_POINT ( 'NONE', #257 ) ;
#307 = DIRECTION ( 'NONE',  ( -1.224646799147353207E-16, -0.000000000000000000, -1.000000000000000000 ) ) ;
#308 = ORIENTED_EDGE ( 'NONE', *, *, #120, .F. ) ;
#309 = EDGE_CURVE ( 'NONE', #216, #2, #71, .T. ) ;
#310 = CARTESIAN_POINT ( 'NONE',  ( 12.69999999999999929, 1.555301434917138433E-15, 2.000000000000000000 ) ) ;
#311 = VERTEX_POINT ( 'NONE', #277 ) ;
#312 = AXIS2_PLACEMENT_3D ( 'NONE', #183, #80, #208 ) ;
#313 = STYLED_ITEM ( 'NONE', ( #38 ), #61 ) ;
#314 = DIRECTION ( 'NONE',  ( -1.224646799147352714E-16, 0.000000000000000000, -1.000000000000000000 ) ) ;
#315 = AXIS2_PLACEMENT_3D ( 'NONE', #150, #77, #244 ) ;
#316 = PRODUCT_DEFINITION_CONTEXT ( 'detailed design', #232, 'design' ) ;
#317 = AXIS2_PLACEMENT_3D ( 'NONE', #96, #188, #19 ) ;
#318 = CARTESIAN_POINT ( 'NONE',  ( 0.000000000000000000, 0.000000000000000000, 0.2000000000000022593 ) ) ;
ENDSEC;
END-ISO-10303-21;
