ISO-10303-21;
HEADER;
FILE_DESCRIPTION (( 'STEP AP214' ),
    '1' );
FILE_NAME ('GL7AL2-025-025-IR2.STEP',
    '2024-07-21T09:59:45',
    ( '' ),
    ( '' ),
    'SwSTEP 2.0',
    'SolidWorks 2022',
    '' );
FILE_SCHEMA (( 'AUTOMOTIVE_DESIGN' ));
ENDSEC;

DATA;
#1 = LINE ( 'NONE', #99, #313 ) ;
#2 = APPLICATION_CONTEXT ( 'automotive_design' ) ;
#3 = DIRECTION ( 'NONE',  ( 0.000000000000000000, 0.000000000000000000, 1.000000000000000000 ) ) ;
#4 = AXIS2_PLACEMENT_3D ( 'NONE', #296, #73, #143 ) ;
#5 = FACE_OUTER_BOUND ( 'NONE', #71, .T. ) ;
#6 = CARTESIAN_POINT ( 'NONE',  ( 12.69999999999999929, 1.555301434917138433E-15, 0.1999999999999970690 ) ) ;
#7 = CARTESIAN_POINT ( 'NONE',  ( -12.69999999999999929, 1.555301434917138433E-15, 0.1999999999999970690 ) ) ;
#8 = CARTESIAN_POINT ( 'NONE',  ( 0.000000000000000000, 0.000000000000000000, 3.750000000000000000 ) ) ;
#9 =( LENGTH_UNIT ( ) NAMED_UNIT ( * ) SI_UNIT ( .MILLI., .METRE. ) );
#10 = ORIENTED_EDGE ( 'NONE', *, *, #168, .F. ) ;
#11 = ADVANCED_FACE ( 'NONE', ( #316 ), #134, .T. ) ;
#12 = AXIS2_PLACEMENT_3D ( 'NONE', #272, #122, #242 ) ;
#13 = CARTESIAN_POINT ( 'NONE',  ( 0.000000000000000000, 0.000000000000000000, 0.1999999999999970690 ) ) ;
#14 = FACE_OUTER_BOUND ( 'NONE', #217, .T. ) ;
#15 = ADVANCED_FACE ( 'NONE', ( #43 ), #184, .T. ) ;
#16 = FILL_AREA_STYLE_COLOUR ( '', #318 ) ;
#17 = ORIENTED_EDGE ( 'NONE', *, *, #304, .T. ) ;
#18 = CIRCLE ( 'NONE', #129, 12.69999999999999929 ) ;
#19 = CARTESIAN_POINT ( 'NONE',  ( 0.000000000000000000, 0.000000000000000000, -29.07000000000000028 ) ) ;
#20 = SURFACE_SIDE_STYLE ('',( #203 ) ) ;
#21 = DIRECTION ( 'NONE',  ( 0.000000000000000000, 1.000000000000000000, -0.000000000000000000 ) ) ;
#22 = PRESENTATION_LAYER_ASSIGNMENT (  '', '', ( #115 ) ) ;
#23 = CARTESIAN_POINT ( 'NONE',  ( 0.000000000000000000, 0.000000000000000000, -29.07000000000000028 ) ) ;
#24 = CARTESIAN_POINT ( 'NONE',  ( 12.69999999999999929, 1.555301434917138433E-15, 3.549999999999994049 ) ) ;
#25 = EDGE_CURVE ( 'NONE', #67, #278, #117, .T. ) ;
#26 = CARTESIAN_POINT ( 'NONE',  ( -2.257585556315553927E-16, 0.000000000000000000, 3.761866934014637120 ) ) ;
#27 = SURFACE_STYLE_USAGE ( .BOTH. , #48 ) ;
#28 = DIRECTION ( 'NONE',  ( -1.000000000000000000, 0.000000000000000000, 1.041823145307888133E-16 ) ) ;
#29 = CARTESIAN_POINT ( 'NONE',  ( 0.000000000000000000, 0.000000000000000000, 0.000000000000000000 ) ) ;
#30 = FACE_OUTER_BOUND ( 'NONE', #174, .T. ) ;
#31 = AXIS2_PLACEMENT_3D ( 'NONE', #63, #212, #180 ) ;
#32 = ADVANCED_FACE ( 'NONE', ( #151 ), #177, .T. ) ;
#33 = DIRECTION ( 'NONE',  ( -1.197432425832967915E-16, -0.000000000000000000, -1.000000000000000000 ) ) ;
#34 = AXIS2_PLACEMENT_3D ( 'NONE', #54, #162, #51 ) ;
#35 = UNCERTAINTY_MEASURE_WITH_UNIT (LENGTH_MEASURE( 1.000000000000000082E-05 ), #9, 'distance_accuracy_value', 'NONE');
#36 = DIRECTION ( 'NONE',  ( -1.000000000000000000, 0.000000000000000000, 1.197432425832967915E-16 ) ) ;
#37 = CIRCLE ( 'NONE', #284, 12.48813306598295192 ) ;
#38 = TOROIDAL_SURFACE ( 'NONE', #178, 12.69999999999999929, 1.897222222222331389 ) ;
#39 = DIRECTION ( 'NONE',  ( -1.197432425832967915E-16, 0.000000000000000000, -1.000000000000000000 ) ) ;
#40 = ADVANCED_FACE ( 'NONE', ( #235 ), #135, .T. ) ;
#41 =( NAMED_UNIT ( * ) PLANE_ANGLE_UNIT ( ) SI_UNIT ( $, .RADIAN. ) );
#42 = VERTEX_POINT ( 'NONE', #24 ) ;
#43 = FACE_OUTER_BOUND ( 'NONE', #130, .T. ) ;
#44 = VECTOR ( 'NONE', #146, 1000.000000000000000 ) ;
#45 = DIRECTION ( 'NONE',  ( 0.000000000000000000, 0.000000000000000000, -1.000000000000000000 ) ) ;
#46 = EDGE_CURVE ( 'NONE', #42, #67, #50, .T. ) ;
#47 = ORIENTED_EDGE ( 'NONE', *, *, #46, .T. ) ;
#48 = SURFACE_SIDE_STYLE ('',( #97 ) ) ;
#49 = DIRECTION ( 'NONE',  ( -1.197432425832967915E-16, 0.000000000000000000, -1.000000000000000000 ) ) ;
#50 = CIRCLE ( 'NONE', #133, 12.69999999999999929 ) ;
#51 = DIRECTION ( 'NONE',  ( 1.000000000000000000, 0.000000000000000000, 0.000000000000000000 ) ) ;
#52 = EDGE_CURVE ( 'NONE', #61, #110, #269, .T. ) ;
#53 = FILL_AREA_STYLE ('',( #317 ) ) ;
#54 = CARTESIAN_POINT ( 'NONE',  ( 0.000000000000000000, 0.000000000000000000, 0.000000000000000000 ) ) ;
#55 = AXIS2_PLACEMENT_3D ( 'NONE', #100, #118, #144 ) ;
#56 =( NAMED_UNIT ( * ) PLANE_ANGLE_UNIT ( ) SI_UNIT ( $, .RADIAN. ) );
#57 = CARTESIAN_POINT ( 'NONE',  ( 12.69999999999999929, 1.555301434917138433E-15, 3.750000000000000000 ) ) ;
#58 = ORIENTED_EDGE ( 'NONE', *, *, #124, .T. ) ;
#59 = AXIS2_PLACEMENT_3D ( 'NONE', #23, #21, #260 ) ;
#60 = CARTESIAN_POINT ( 'NONE',  ( 0.000000000000000000, 0.000000000000000000, 5.647222222222332277 ) ) ;
#61 = VERTEX_POINT ( 'NONE', #238 ) ;
#62 = FILL_AREA_STYLE ('',( #16 ) ) ;
#63 = CARTESIAN_POINT ( 'NONE',  ( 0.000000000000000000, 0.000000000000000000, 0.1999999999999970690 ) ) ;
#64 = ADVANCED_FACE ( 'NONE', ( #297 ), #164, .T. ) ;
#65 = EDGE_CURVE ( 'NONE', #285, #278, #18, .T. ) ;
#66 =( LENGTH_UNIT ( ) NAMED_UNIT ( * ) SI_UNIT ( .MILLI., .METRE. ) );
#67 = VERTEX_POINT ( 'NONE', #123 ) ;
#68 = ORIENTED_EDGE ( 'NONE', *, *, #245, .T. ) ;
#69 = DIRECTION ( 'NONE',  ( 1.000000000000000000, 0.000000000000000000, -1.365923996832131609E-16 ) ) ;
#70 = VECTOR ( 'NONE', #155, 1000.000000000000000 ) ;
#71 = EDGE_LOOP ( 'NONE', ( #112, #176, #114, #312 ) ) ;
#72 = CARTESIAN_POINT ( 'NONE',  ( 0.000000000000000000, 0.000000000000000000, 3.549999999999995826 ) ) ;
#73 = DIRECTION ( 'NONE',  ( 1.197432425832967915E-16, -0.000000000000000000, 1.000000000000000000 ) ) ;
#74 = DIRECTION ( 'NONE',  ( 0.7071067811865466846, 8.659560562354924230E-17, -0.7071067811865483499 ) ) ;
#75 = AXIS2_PLACEMENT_3D ( 'NONE', #156, #263, #45 ) ;
#76 = CARTESIAN_POINT ( 'NONE',  ( 0.000000000000000000, 0.000000000000000000, 0.000000000000000000 ) ) ;
#77 = UNCERTAINTY_MEASURE_WITH_UNIT (LENGTH_MEASURE( 1.000000000000000082E-05 ), #84, 'distance_accuracy_value', 'NONE');
#78 = DIRECTION ( 'NONE',  ( -0.000000000000000000, -0.000000000000000000, -1.000000000000000000 ) ) ;
#79 = DIRECTION ( 'NONE',  ( -0.7071067811865469066, 0.000000000000000000, -0.7071067811865482389 ) ) ;
#80 = CIRCLE ( 'NONE', #236, 12.69999999999999929 ) ;
#81 = VERTEX_POINT ( 'NONE', #290 ) ;
#82 = CARTESIAN_POINT ( 'NONE',  ( 12.48813306599270234, 1.529355218659418198E-15, 3.761866934014635788 ) ) ;
#83 = ORIENTED_EDGE ( 'NONE', *, *, #89, .T. ) ;
#84 =( LENGTH_UNIT ( ) NAMED_UNIT ( * ) SI_UNIT ( .MILLI., .METRE. ) );
#85 = ORIENTED_EDGE ( 'NONE', *, *, #257, .T. ) ;
#86 = CIRCLE ( 'NONE', #264, 12.69999999999999929 ) ;
#87 = AXIS2_PLACEMENT_3D ( 'NONE', #251, #306, #147 ) ;
#88 = ORIENTED_EDGE ( 'NONE', *, *, #25, .T. ) ;
#89 = EDGE_CURVE ( 'NONE', #81, #110, #105, .T. ) ;
#90 = CARTESIAN_POINT ( 'NONE',  ( -2.257585556312962519E-16, 0.000000000000000000, 3.761866934016801611 ) ) ;
#91 = AXIS2_PLACEMENT_3D ( 'NONE', #141, #159, #28 ) ;
#92 = CARTESIAN_POINT ( 'NONE',  ( -12.69999999999999929, 0.000000000000000000, 3.750000000000000000 ) ) ;
#93 = EDGE_CURVE ( 'NONE', #67, #42, #80, .T. ) ;
#94 = DIRECTION ( 'NONE',  ( -1.000000000000000000, 0.000000000000000000, 9.892919737535256540E-17 ) ) ;
#95 = DIRECTION ( 'NONE',  ( -1.000000000000000000, 0.000000000000000000, 1.041823145307888133E-16 ) ) ;
#96 = CIRCLE ( 'NONE', #34, 12.50000000000000000 ) ;
#97 = SURFACE_STYLE_FILL_AREA ( #53 ) ;
#98 = EDGE_CURVE ( 'NONE', #286, #81, #259, .T. ) ;
#99 = CARTESIAN_POINT ( 'NONE',  ( 12.69999999999999929, 0.000000000000000000, 0.1999999999999970690 ) ) ;
#100 = CARTESIAN_POINT ( 'NONE',  ( 1.382722141535955685E-17, 0.000000000000000000, 3.865473918336066905 ) ) ;
#101 = VECTOR ( 'NONE', #79, 999.9999999999998863 ) ;
#102 = EDGE_CURVE ( 'NONE', #204, #283, #148, .T. ) ;
#103 = DIRECTION ( 'NONE',  ( -1.000000000000000000, 0.000000000000000000, 0.000000000000000000 ) ) ;
#104 = FACE_OUTER_BOUND ( 'NONE', #138, .T. ) ;
#105 = CIRCLE ( 'NONE', #55, 12.04821388316975295 ) ;
#106 = EDGE_LOOP ( 'NONE', ( #10, #154, #68, #211 ) ) ;
#107 =( GEOMETRIC_REPRESENTATION_CONTEXT ( 3 ) GLOBAL_UNCERTAINTY_ASSIGNED_CONTEXT ( ( #77 ) ) GLOBAL_UNIT_ASSIGNED_CONTEXT ( ( #84, #109, #310 ) ) REPRESENTATION_CONTEXT ( 'NONE', 'WORKASPACE' ) );
#108 = ADVANCED_FACE ( 'NONE', ( #5 ), #197, .T. ) ;
#109 =( NAMED_UNIT ( * ) PLANE_ANGLE_UNIT ( ) SI_UNIT ( $, .RADIAN. ) );
#110 = VERTEX_POINT ( 'NONE', #125 ) ;
#111 = VECTOR ( 'NONE', #198, 1000.000000000000000 ) ;
#112 = ORIENTED_EDGE ( 'NONE', *, *, #224, .F. ) ;
#113 = ORIENTED_EDGE ( 'NONE', *, *, #98, .T. ) ;
#114 = ORIENTED_EDGE ( 'NONE', *, *, #167, .T. ) ;
#115 = STYLED_ITEM ( 'NONE', ( #120 ), #205 ) ;
#116 = DIRECTION ( 'NONE',  ( 0.000000000000000000, 1.000000000000000000, -0.000000000000000000 ) ) ;
#117 = LINE ( 'NONE', #92, #70 ) ;
#118 = DIRECTION ( 'NONE',  ( -1.197432425832967915E-16, -0.000000000000000000, -1.000000000000000000 ) ) ;
#119 = AXIS2_PLACEMENT_3D ( 'NONE', #76, #78, #244 ) ;
#120 = PRESENTATION_STYLE_ASSIGNMENT (( #27 ) ) ;
#121 = EDGE_CURVE ( 'NONE', #286, #61, #165, .T. ) ;
#122 = DIRECTION ( 'NONE',  ( 0.000000000000000000, -1.000000000000000000, 0.000000000000000000 ) ) ;
#123 = CARTESIAN_POINT ( 'NONE',  ( -12.69999999999999929, 0.000000000000000000, 3.549999999999997602 ) ) ;
#124 = EDGE_CURVE ( 'NONE', #307, #110, #157, .T. ) ;
#125 = CARTESIAN_POINT ( 'NONE',  ( -12.04821388316975295, 0.000000000000000000, 3.865473918336068238 ) ) ;
#126 = AXIS2_PLACEMENT_3D ( 'NONE', #8, #193, #299 ) ;
#127 = PRODUCT_DEFINITION_FORMATION_WITH_SPECIFIED_SOURCE ( 'ÈÎºÎ', '', #267, .NOT_KNOWN. ) ;
#128 = EDGE_LOOP ( 'NONE', ( #170, #113, #83, #137 ) ) ;
#129 = AXIS2_PLACEMENT_3D ( 'NONE', #190, #160, #268 ) ;
#130 = EDGE_LOOP ( 'NONE', ( #234, #229, #311, #202 ) ) ;
#131 = ORIENTED_EDGE ( 'NONE', *, *, #25, .F. ) ;
#132 = APPLICATION_PROTOCOL_DEFINITION ( 'draft international standard', 'automotive_design', 1998, #2 ) ;
#133 = AXIS2_PLACEMENT_3D ( 'NONE', #262, #287, #69 ) ;
#134 = SPHERICAL_SURFACE ( 'NONE', #59, 35.07000000000000028 ) ;
#135 = SPHERICAL_SURFACE ( 'NONE', #252, 35.07000000000000028 ) ;
#136 = AXIS2_PLACEMENT_3D ( 'NONE', #166, #33, #302 ) ;
#137 = ORIENTED_EDGE ( 'NONE', *, *, #52, .F. ) ;
#138 = EDGE_LOOP ( 'NONE', ( #300, #47, #88, #209 ) ) ;
#139 = ADVANCED_FACE ( 'NONE', ( #163 ), #230, .T. ) ;
#140 = PRODUCT_RELATED_PRODUCT_CATEGORY ( 'part', '', ( #267 ) ) ;
#141 = CARTESIAN_POINT ( 'NONE',  ( -2.257585556312962519E-16, 0.000000000000000000, 3.761866934016801611 ) ) ;
#142 = DIRECTION ( 'NONE',  ( -0.000000000000000000, -0.000000000000000000, 1.000000000000000000 ) ) ;
#143 = DIRECTION ( 'NONE',  ( 1.000000000000000000, 0.000000000000000000, -1.041823145307908471E-16 ) ) ;
#144 = DIRECTION ( 'NONE',  ( -1.000000000000000000, 0.000000000000000000, 1.079863471547465051E-16 ) ) ;
#145 = DIRECTION ( 'NONE',  ( 1.000000000000000000, 0.000000000000000000, -0.000000000000000000 ) ) ;
#146 = DIRECTION ( 'NONE',  ( -0.000000000000000000, -0.000000000000000000, -1.000000000000000000 ) ) ;
#147 = DIRECTION ( 'NONE',  ( -1.000000000000000000, -1.224646799147352961E-16, 0.000000000000000000 ) ) ;
#148 = CIRCLE ( 'NONE', #119, 12.50000000000000000 ) ;
#149 = SURFACE_STYLE_USAGE ( .BOTH. , #20 ) ;
#150 = DIRECTION ( 'NONE',  ( 1.000000000000000000, 0.000000000000000000, 0.000000000000000000 ) ) ;
#151 = FACE_OUTER_BOUND ( 'NONE', #314, .T. ) ;
#152 = AXIS2_PLACEMENT_3D ( 'NONE', #60, #225, #192 ) ;
#153 = CARTESIAN_POINT ( 'NONE',  ( 0.000000000000000000, 0.000000000000000000, 5.647222222222332277 ) ) ;
#154 = ORIENTED_EDGE ( 'NONE', *, *, #196, .F. ) ;
#155 = DIRECTION ( 'NONE',  ( -0.000000000000000000, -0.000000000000000000, -1.000000000000000000 ) ) ;
#156 = CARTESIAN_POINT ( 'NONE',  ( -12.69999999999999929, 0.000000000000000000, 5.647222222222334054 ) ) ;
#157 = CIRCLE ( 'NONE', #12, 35.07000000000000739 ) ;
#158 = ORIENTED_EDGE ( 'NONE', *, *, #89, .F. ) ;
#159 = DIRECTION ( 'NONE',  ( -1.197432425832967915E-16, 0.000000000000000000, -1.000000000000000000 ) ) ;
#160 = DIRECTION ( 'NONE',  ( -0.000000000000000000, -0.000000000000000000, 1.000000000000000000 ) ) ;
#161 = VECTOR ( 'NONE', #74, 1000.000000000000000 ) ;
#162 = DIRECTION ( 'NONE',  ( -0.000000000000000000, -0.000000000000000000, -1.000000000000000000 ) ) ;
#163 = FACE_OUTER_BOUND ( 'NONE', #106, .T. ) ;
#164 = CYLINDRICAL_SURFACE ( 'NONE', #227, 12.69999999999999929 ) ;
#165 = CIRCLE ( 'NONE', #4, 12.48813306598295192 ) ;
#166 = CARTESIAN_POINT ( 'NONE',  ( 1.382722141535955685E-17, 0.000000000000000000, 3.865473918336066905 ) ) ;
#167 = EDGE_CURVE ( 'NONE', #283, #285, #1, .T. ) ;
#168 = EDGE_CURVE ( 'NONE', #286, #42, #223, .T. ) ;
#169 = LINE ( 'NONE', #57, #44 ) ;
#170 = ORIENTED_EDGE ( 'NONE', *, *, #196, .T. ) ;
#171 = CARTESIAN_POINT ( 'NONE',  ( -12.48813306598319528, 0.000000000000000000, 3.761866934016802499 ) ) ;
#172 = CARTESIAN_POINT ( 'NONE',  ( 0.000000000000000000, 0.000000000000000000, 0.000000000000000000 ) ) ;
#173 = PRODUCT_CONTEXT ( 'NONE', #2, 'mechanical' ) ;
#174 = EDGE_LOOP ( 'NONE', ( #228, #255 ) ) ;
#175 = CARTESIAN_POINT ( 'NONE',  ( 2.051977355091334265E-15, 0.000000000000000000, 5.999999999999998224 ) ) ;
#176 = ORIENTED_EDGE ( 'NONE', *, *, #182, .F. ) ;
#177 = CONICAL_SURFACE ( 'NONE', #273, 12.48813306598319528, 0.7853981633974472798 ) ;
#178 = AXIS2_PLACEMENT_3D ( 'NONE', #153, #232, #36 ) ;
#179 = EDGE_LOOP ( 'NONE', ( #199, #17, #315 ) ) ;
#180 = DIRECTION ( 'NONE',  ( 1.000000000000000000, 0.000000000000000000, 0.000000000000000000 ) ) ;
#181 = ORIENTED_EDGE ( 'NONE', *, *, #93, .F. ) ;
#182 = EDGE_CURVE ( 'NONE', #283, #204, #96, .T. ) ;
#183 = AXIS2_PLACEMENT_3D ( 'NONE', #222, #218, #220 ) ;
#184 = CONICAL_SURFACE ( 'NONE', #31, 12.69999999999999929, 0.7853981633974526089 ) ;
#185 = CARTESIAN_POINT ( 'NONE',  ( 0.000000000000000000, 0.000000000000000000, 3.750000000000000000 ) ) ;
#186 = DIRECTION ( 'NONE',  ( -0.000000000000000000, -0.000000000000000000, -1.000000000000000000 ) ) ;
#187 = PRODUCT_DEFINITION_CONTEXT ( 'detailed design', #247, 'design' ) ;
#188 = DIRECTION ( 'NONE',  ( 0.7071067811865505703, 0.000000000000000000, 0.7071067811865444641 ) ) ;
#189 = CARTESIAN_POINT ( 'NONE',  ( -12.50000000000000000, 1.543054966925665076E-15, 0.000000000000000000 ) ) ;
#190 = CARTESIAN_POINT ( 'NONE',  ( 0.000000000000000000, 0.000000000000000000, 0.1999999999999970690 ) ) ;
#191 = CYLINDRICAL_SURFACE ( 'NONE', #126, 12.69999999999999929 ) ;
#192 = DIRECTION ( 'NONE',  ( -1.000000000000000000, 0.000000000000000000, 1.197432425832967915E-16 ) ) ;
#193 = DIRECTION ( 'NONE',  ( -0.000000000000000000, -0.000000000000000000, -1.000000000000000000 ) ) ;
#194 = ORIENTED_EDGE ( 'NONE', *, *, #98, .F. ) ;
#195 = ADVANCED_FACE ( 'NONE', ( #30 ), #243, .F. ) ;
#196 = EDGE_CURVE ( 'NONE', #61, #286, #37, .T. ) ;
#197 = CONICAL_SURFACE ( 'NONE', #241, 12.69999999999999929, 0.7853981633974526089 ) ;
#198 = DIRECTION ( 'NONE',  ( -0.7071067811865505703, 8.659560562354969836E-17, 0.7071067811865444641 ) ) ;
#199 = ORIENTED_EDGE ( 'NONE', *, *, #124, .F. ) ;
#200 = DIRECTION ( 'NONE',  ( -0.000000000000000000, -0.000000000000000000, 1.000000000000000000 ) ) ;
#201 = CARTESIAN_POINT ( 'NONE',  ( -12.69999999999999929, 0.000000000000000000, 0.1999999999999970690 ) ) ;
#202 = ORIENTED_EDGE ( 'NONE', *, *, #167, .F. ) ;
#203 = SURFACE_STYLE_FILL_AREA ( #62 ) ;
#204 = VERTEX_POINT ( 'NONE', #189 ) ;
#205 = MANIFOLD_SOLID_BREP ( 'µ¹½Ç2', #289 ) ;
#206 = FACE_OUTER_BOUND ( 'NONE', #128, .T. ) ;
#207 = PRESENTATION_STYLE_ASSIGNMENT (( #149 ) ) ;
#208 = COLOUR_RGB ( '',1.000000000000000000, 1.000000000000000000, 1.000000000000000000 ) ;
#209 = ORIENTED_EDGE ( 'NONE', *, *, #258, .T. ) ;
#210 = APPLICATION_PROTOCOL_DEFINITION ( 'draft international standard', 'automotive_design', 1998, #247 ) ;
#211 = ORIENTED_EDGE ( 'NONE', *, *, #46, .F. ) ;
#212 = DIRECTION ( 'NONE',  ( -0.000000000000000000, -0.000000000000000000, 1.000000000000000000 ) ) ;
#213 = AXIS2_PLACEMENT_3D ( 'NONE', #29, #3, #145 ) ;
#214 =( GEOMETRIC_REPRESENTATION_CONTEXT ( 3 ) GLOBAL_UNCERTAINTY_ASSIGNED_CONTEXT ( ( #248 ) ) GLOBAL_UNIT_ASSIGNED_CONTEXT ( ( #66, #41, #277 ) ) REPRESENTATION_CONTEXT ( 'NONE', 'WORKASPACE' ) );
#215 = ORIENTED_EDGE ( 'NONE', *, *, #93, .T. ) ;
#216 = ADVANCED_FACE ( 'NONE', ( #206 ), #219, .F. ) ;
#217 = EDGE_LOOP ( 'NONE', ( #194, #239, #282, #85 ) ) ;
#218 = DIRECTION ( 'NONE',  ( -1.224646799147353207E-16, 1.000000000000000000, 1.466431787491594470E-32 ) ) ;
#219 = TOROIDAL_SURFACE ( 'NONE', #152, 12.69999999999999929, 1.897222222222331389 ) ;
#220 = DIRECTION ( 'NONE',  ( -1.000000000000000000, -1.224646799147353454E-16, 0.000000000000000000 ) ) ;
#221 = DIRECTION ( 'NONE',  ( 1.000000000000000000, 0.000000000000000000, 0.000000000000000000 ) ) ;
#222 = CARTESIAN_POINT ( 'NONE',  ( 12.69999999999999929, 1.555301434917138433E-15, 5.647222222222330501 ) ) ;
#223 = LINE ( 'NONE', #294, #161 ) ;
#224 = EDGE_CURVE ( 'NONE', #204, #278, #249, .T. ) ;
#225 = DIRECTION ( 'NONE',  ( -1.197432425832967915E-16, -0.000000000000000000, -1.000000000000000000 ) ) ;
#226 = CARTESIAN_POINT ( 'NONE',  ( 12.50000000000000000, 0.000000000000000000, 0.000000000000000000 ) ) ;
#227 = AXIS2_PLACEMENT_3D ( 'NONE', #185, #186, #103 ) ;
#228 = ORIENTED_EDGE ( 'NONE', *, *, #182, .T. ) ;
#229 = ORIENTED_EDGE ( 'NONE', *, *, #224, .T. ) ;
#230 = CONICAL_SURFACE ( 'NONE', #91, 12.48813306598319528, 0.7853981633974472798 ) ;
#231 = MECHANICAL_DESIGN_GEOMETRIC_PRESENTATION_REPRESENTATION (  '', ( #253 ), #107 ) ;
#232 = DIRECTION ( 'NONE',  ( -1.197432425832967915E-16, -0.000000000000000000, -1.000000000000000000 ) ) ;
#233 = EDGE_LOOP ( 'NONE', ( #261, #58, #158 ) ) ;
#234 = ORIENTED_EDGE ( 'NONE', *, *, #102, .F. ) ;
#235 = FACE_OUTER_BOUND ( 'NONE', #233, .T. ) ;
#236 = AXIS2_PLACEMENT_3D ( 'NONE', #72, #49, #292 ) ;
#237 = PRODUCT_DEFINITION ( 'Î´Öª', '', #127, #187 ) ;
#238 = CARTESIAN_POINT ( 'NONE',  ( -12.48813306599270234, 0.000000000000000000, 3.761866934014638897 ) ) ;
#239 = ORIENTED_EDGE ( 'NONE', *, *, #121, .T. ) ;
#240 = DIRECTION ( 'NONE',  ( 1.197432425832967915E-16, -0.000000000000000000, 1.000000000000000000 ) ) ;
#241 = AXIS2_PLACEMENT_3D ( 'NONE', #271, #142, #221 ) ;
#242 = DIRECTION ( 'NONE',  ( 0.000000000000000000, 0.000000000000000000, -1.000000000000000000 ) ) ;
#243 = PLANE ( 'NONE',  #213 ) ;
#244 = DIRECTION ( 'NONE',  ( 1.000000000000000000, 0.000000000000000000, 0.000000000000000000 ) ) ;
#245 = EDGE_CURVE ( 'NONE', #61, #67, #298, .T. ) ;
#246 =( GEOMETRIC_REPRESENTATION_CONTEXT ( 3 ) GLOBAL_UNCERTAINTY_ASSIGNED_CONTEXT ( ( #35 ) ) GLOBAL_UNIT_ASSIGNED_CONTEXT ( ( #9, #56, #276 ) ) REPRESENTATION_CONTEXT ( 'NONE', 'WORKASPACE' ) );
#247 = APPLICATION_CONTEXT ( 'automotive_design' ) ;
#248 = UNCERTAINTY_MEASURE_WITH_UNIT (LENGTH_MEASURE( 1.000000000000000082E-05 ), #66, 'distance_accuracy_value', 'NONE');
#249 = LINE ( 'NONE', #7, #111 ) ;
#250 = ORIENTED_EDGE ( 'NONE', *, *, #245, .F. ) ;
#251 = CARTESIAN_POINT ( 'NONE',  ( 0.000000000000000000, 0.000000000000000000, -29.07000000000000028 ) ) ;
#252 = AXIS2_PLACEMENT_3D ( 'NONE', #19, #116, #94 ) ;
#253 = STYLED_ITEM ( 'NONE', ( #207 ), #256 ) ;
#254 = SHAPE_DEFINITION_REPRESENTATION ( #293, #256 ) ;
#255 = ORIENTED_EDGE ( 'NONE', *, *, #102, .T. ) ;
#256 = ADVANCED_BREP_SHAPE_REPRESENTATION ( 'GL7AL2-025-025-IR2', ( #205, #274 ), #214 ) ;
#257 = EDGE_CURVE ( 'NONE', #110, #81, #279, .T. ) ;
#258 = EDGE_CURVE ( 'NONE', #278, #285, #86, .T. ) ;
#259 = CIRCLE ( 'NONE', #183, 1.897222222222331389 ) ;
#260 = DIRECTION ( 'NONE',  ( -1.000000000000000000, 0.000000000000000000, 9.892919737535256540E-17 ) ) ;
#261 = ORIENTED_EDGE ( 'NONE', *, *, #304, .F. ) ;
#262 = CARTESIAN_POINT ( 'NONE',  ( 0.000000000000000000, 0.000000000000000000, 3.549999999999995826 ) ) ;
#263 = DIRECTION ( 'NONE',  ( 0.000000000000000000, -1.000000000000000000, 0.000000000000000000 ) ) ;
#264 = AXIS2_PLACEMENT_3D ( 'NONE', #13, #200, #305 ) ;
#265 = EDGE_LOOP ( 'NONE', ( #215, #288, #275, #131 ) ) ;
#266 = DIRECTION ( 'NONE',  ( 1.000000000000000000, 0.000000000000000000, -1.041823145307908471E-16 ) ) ;
#267 = PRODUCT ( 'GL7AL2-025-025-IR2', 'GL7AL2-025-025-IR2', '', ( #173 ) ) ;
#268 = DIRECTION ( 'NONE',  ( 1.000000000000000000, 0.000000000000000000, 0.000000000000000000 ) ) ;
#269 = CIRCLE ( 'NONE', #75, 1.897222222222331389 ) ;
#270 = PRESENTATION_LAYER_ASSIGNMENT (  '', '', ( #253 ) ) ;
#271 = CARTESIAN_POINT ( 'NONE',  ( 0.000000000000000000, 0.000000000000000000, 0.1999999999999970690 ) ) ;
#272 = CARTESIAN_POINT ( 'NONE',  ( 0.000000000000000000, 0.000000000000000000, -29.07000000000000028 ) ) ;
#273 = AXIS2_PLACEMENT_3D ( 'NONE', #90, #39, #95 ) ;
#274 = AXIS2_PLACEMENT_3D ( 'NONE', #172, #281, #150 ) ;
#275 = ORIENTED_EDGE ( 'NONE', *, *, #65, .T. ) ;
#276 =( NAMED_UNIT ( * ) SI_UNIT ( $, .STERADIAN. ) SOLID_ANGLE_UNIT ( ) );
#277 =( NAMED_UNIT ( * ) SI_UNIT ( $, .STERADIAN. ) SOLID_ANGLE_UNIT ( ) );
#278 = VERTEX_POINT ( 'NONE', #201 ) ;
#279 = CIRCLE ( 'NONE', #136, 12.04821388316975295 ) ;
#280 = ORIENTED_EDGE ( 'NONE', *, *, #121, .F. ) ;
#281 = DIRECTION ( 'NONE',  ( 0.000000000000000000, 0.000000000000000000, 1.000000000000000000 ) ) ;
#282 = ORIENTED_EDGE ( 'NONE', *, *, #52, .T. ) ;
#283 = VERTEX_POINT ( 'NONE', #226 ) ;
#284 = AXIS2_PLACEMENT_3D ( 'NONE', #26, #240, #266 ) ;
#285 = VERTEX_POINT ( 'NONE', #6 ) ;
#286 = VERTEX_POINT ( 'NONE', #82 ) ;
#287 = DIRECTION ( 'NONE',  ( -1.197432425832967915E-16, 0.000000000000000000, -1.000000000000000000 ) ) ;
#288 = ORIENTED_EDGE ( 'NONE', *, *, #295, .T. ) ;
#289 = CLOSED_SHELL ( 'NONE', ( #32, #15, #11, #216, #64, #291, #195, #309, #40, #108, #139 ) ) ;
#290 = CARTESIAN_POINT ( 'NONE',  ( 12.04821388316975295, 1.502417937702454094E-15, 3.865473918336065573 ) ) ;
#291 = ADVANCED_FACE ( 'NONE', ( #104 ), #191, .T. ) ;
#292 = DIRECTION ( 'NONE',  ( 1.000000000000000000, 0.000000000000000000, -1.365923996832131609E-16 ) ) ;
#293 = PRODUCT_DEFINITION_SHAPE ( 'NONE', 'NONE',  #237 ) ;
#294 = CARTESIAN_POINT ( 'NONE',  ( 12.48813306598319528, 1.529355218658254233E-15, 3.761866934016800279 ) ) ;
#295 = EDGE_CURVE ( 'NONE', #42, #285, #169, .T. ) ;
#296 = CARTESIAN_POINT ( 'NONE',  ( -2.257585556315553927E-16, 0.000000000000000000, 3.761866934014637120 ) ) ;
#297 = FACE_OUTER_BOUND ( 'NONE', #265, .T. ) ;
#298 = LINE ( 'NONE', #171, #101 ) ;
#299 = DIRECTION ( 'NONE',  ( -1.000000000000000000, 0.000000000000000000, 0.000000000000000000 ) ) ;
#300 = ORIENTED_EDGE ( 'NONE', *, *, #295, .F. ) ;
#301 = MECHANICAL_DESIGN_GEOMETRIC_PRESENTATION_REPRESENTATION (  '', ( #115 ), #246 ) ;
#302 = DIRECTION ( 'NONE',  ( -1.000000000000000000, 0.000000000000000000, 1.079863471547465051E-16 ) ) ;
#303 = ORIENTED_EDGE ( 'NONE', *, *, #168, .T. ) ;
#304 = EDGE_CURVE ( 'NONE', #307, #81, #308, .T. ) ;
#305 = DIRECTION ( 'NONE',  ( 1.000000000000000000, 0.000000000000000000, 0.000000000000000000 ) ) ;
#306 = DIRECTION ( 'NONE',  ( -1.224646799147353207E-16, 1.000000000000000000, 1.466431787491594470E-32 ) ) ;
#307 = VERTEX_POINT ( 'NONE', #175 ) ;
#308 = CIRCLE ( 'NONE', #87, 35.07000000000000028 ) ;
#309 = ADVANCED_FACE ( 'NONE', ( #14 ), #38, .F. ) ;
#310 =( NAMED_UNIT ( * ) SI_UNIT ( $, .STERADIAN. ) SOLID_ANGLE_UNIT ( ) );
#311 = ORIENTED_EDGE ( 'NONE', *, *, #65, .F. ) ;
#312 = ORIENTED_EDGE ( 'NONE', *, *, #258, .F. ) ;
#313 = VECTOR ( 'NONE', #188, 1000.000000000000000 ) ;
#314 = EDGE_LOOP ( 'NONE', ( #280, #303, #181, #250 ) ) ;
#315 = ORIENTED_EDGE ( 'NONE', *, *, #257, .F. ) ;
#316 = FACE_OUTER_BOUND ( 'NONE', #179, .T. ) ;
#317 = FILL_AREA_STYLE_COLOUR ( '', #208 ) ;
#318 = COLOUR_RGB ( '',1.000000000000000000, 1.000000000000000000, 1.000000000000000000 ) ;
ENDSEC;
END-ISO-10303-21;
