ISO-10303-21;
HEADER;
FILE_DESCRIPTION (( 'STEP AP214' ),
    '1' );
FILE_NAME ('GLA11-012-9.5-VIS.STEP',
    '2024-08-09T08:23:46',
    ( 'Windows User' ),
    ( 'P R C' ),
    'SwSTEP 2.0',
    'SolidWorks 2022',
    '' );
FILE_SCHEMA (( 'AUTOMOTIVE_DESIGN' ));
ENDSEC;

DATA;
#1 =( LENGTH_UNIT ( ) NAMED_UNIT ( * ) SI_UNIT ( .MILLI., .METRE. ) );
#2 = APPLICATION_CONTEXT ( 'automotive_design' ) ;
#3 = EDGE_LOOP ( 'NONE', ( #17, #71, #6, #171 ) ) ;
#4 = COLOUR_RGB ( '',1.000000000000000000, 1.000000000000000000, 1.000000000000000000 ) ;
#5 = CARTESIAN_POINT ( 'NONE',  ( 6.250000000000000000, 0.000000000000000000, 0.1999999999999987899 ) ) ;
#6 = ORIENTED_EDGE ( 'NONE', *, *, #79, .T. ) ;
#7 = EDGE_LOOP ( 'NONE', ( #201, #39, #187, #104 ) ) ;
#8 = EDGE_CURVE ( 'NONE', #101, #186, #208, .T. ) ;
#9 = AXIS2_PLACEMENT_3D ( 'NONE', #11, #47, #30 ) ;
#10 = MECHANICAL_DESIGN_GEOMETRIC_PRESENTATION_REPRESENTATION (  '', ( #25 ), #61 ) ;
#11 = CARTESIAN_POINT ( 'NONE',  ( 0.000000000000000000, 0.000000000000000000, 0.000000000000000000 ) ) ;
#12 = AXIS2_PLACEMENT_3D ( 'NONE', #122, #108, #173 ) ;
#13 = DIRECTION ( 'NONE',  ( -0.000000000000000000, -1.000000000000000000, 0.000000000000000000 ) ) ;
#14 = DIRECTION ( 'NONE',  ( -0.000000000000000000, -0.000000000000000000, -1.000000000000000000 ) ) ;
#15 = EDGE_LOOP ( 'NONE', ( #152, #193, #37 ) ) ;
#16 =( LENGTH_UNIT ( ) NAMED_UNIT ( * ) SI_UNIT ( .MILLI., .METRE. ) );
#17 = ORIENTED_EDGE ( 'NONE', *, *, #145, .F. ) ;
#18 = EDGE_CURVE ( 'NONE', #86, #70, #206, .T. ) ;
#19 = CARTESIAN_POINT ( 'NONE',  ( 0.000000000000000000, 0.000000000000000000, -2.444485294117647367 ) ) ;
#20 = CARTESIAN_POINT ( 'NONE',  ( -6.250000000000000000, 0.000000000000000000, 1.600000000000000089 ) ) ;
#21 = VERTEX_POINT ( 'NONE', #23 ) ;
#22 = AXIS2_PLACEMENT_3D ( 'NONE', #131, #132, #100 ) ;
#23 = CARTESIAN_POINT ( 'NONE',  ( 6.250000000000000000, 7.654042494670957606E-16, 1.600000000000000089 ) ) ;
#24 = UNCERTAINTY_MEASURE_WITH_UNIT (LENGTH_MEASURE( 1.000000000000000082E-05 ), #127, 'distance_accuracy_value', 'NONE');
#25 = STYLED_ITEM ( 'NONE', ( #62 ), #102 ) ;
#26 = DIRECTION ( 'NONE',  ( 1.000000000000000000, 0.000000000000000000, 0.000000000000000000 ) ) ;
#27 =( NAMED_UNIT ( * ) SI_UNIT ( $, .STERADIAN. ) SOLID_ANGLE_UNIT ( ) );
#28 = PLANE ( 'NONE',  #194 ) ;
#29 = CIRCLE ( 'NONE', #34, 6.250000000000000000 ) ;
#30 = DIRECTION ( 'NONE',  ( 1.000000000000000000, 0.000000000000000000, 0.000000000000000000 ) ) ;
#31 = FACE_OUTER_BOUND ( 'NONE', #176, .T. ) ;
#32 = PRODUCT_DEFINITION_SHAPE ( 'NONE', 'NONE',  #128 ) ;
#33 = DIRECTION ( 'NONE',  ( -0.000000000000000000, -0.000000000000000000, 1.000000000000000000 ) ) ;
#34 = AXIS2_PLACEMENT_3D ( 'NONE', #119, #33, #26 ) ;
#35 = VERTEX_POINT ( 'NONE', #135 ) ;
#36 = DIRECTION ( 'NONE',  ( -0.000000000000000000, -0.000000000000000000, 1.000000000000000000 ) ) ;
#37 = ORIENTED_EDGE ( 'NONE', *, *, #8, .T. ) ;
#38 = AXIS2_PLACEMENT_3D ( 'NONE', #195, #97, #163 ) ;
#39 = ORIENTED_EDGE ( 'NONE', *, *, #95, .T. ) ;
#40 = PRODUCT_DEFINITION_CONTEXT ( 'detailed design', #2, 'design' ) ;
#41 = DIRECTION ( 'NONE',  ( 0.000000000000000000, 0.000000000000000000, 1.000000000000000000 ) ) ;
#42 = FACE_OUTER_BOUND ( 'NONE', #7, .T. ) ;
#43 = COLOUR_RGB ( '',1.000000000000000000, 1.000000000000000000, 1.000000000000000000 ) ;
#44 = APPLICATION_CONTEXT ( 'automotive_design' ) ;
#45 = DIRECTION ( 'NONE',  ( 1.000000000000000000, 0.000000000000000000, -0.000000000000000000 ) ) ;
#46 = CIRCLE ( 'NONE', #160, 6.250000000000000000 ) ;
#47 = DIRECTION ( 'NONE',  ( -0.000000000000000000, -0.000000000000000000, -1.000000000000000000 ) ) ;
#48 = AXIS2_PLACEMENT_3D ( 'NONE', #188, #52, #191 ) ;
#49 = SURFACE_STYLE_FILL_AREA ( #153 ) ;
#50 = CARTESIAN_POINT ( 'NONE',  ( 0.000000000000000000, 0.000000000000000000, 0.1999999999999987899 ) ) ;
#51 = FACE_OUTER_BOUND ( 'NONE', #15, .T. ) ;
#52 = DIRECTION ( 'NONE',  ( 0.000000000000000000, 0.000000000000000000, 1.000000000000000000 ) ) ;
#53 = ORIENTED_EDGE ( 'NONE', *, *, #18, .T. ) ;
#54 = DIRECTION ( 'NONE',  ( -0.7071067811865490160, 8.659560562354953812E-17, 0.7071067811865460184 ) ) ;
#55 = ORIENTED_EDGE ( 'NONE', *, *, #107, .F. ) ;
#56 = UNCERTAINTY_MEASURE_WITH_UNIT (LENGTH_MEASURE( 1.000000000000000082E-05 ), #1, 'distance_accuracy_value', 'NONE');
#57 = CARTESIAN_POINT ( 'NONE',  ( -6.250000000000000000, 0.000000000000000000, 1.600000000000000089 ) ) ;
#58 = DIRECTION ( 'NONE',  ( 0.7071067811865490160, 0.000000000000000000, 0.7071067811865460184 ) ) ;
#59 = PRODUCT_RELATED_PRODUCT_CATEGORY ( 'part', '', ( #134 ) ) ;
#60 = CARTESIAN_POINT ( 'NONE',  ( -6.250000000000000000, 0.000000000000000000, 0.1999999999999987899 ) ) ;
#61 =( GEOMETRIC_REPRESENTATION_CONTEXT ( 3 ) GLOBAL_UNCERTAINTY_ASSIGNED_CONTEXT ( ( #24 ) ) GLOBAL_UNIT_ASSIGNED_CONTEXT ( ( #127, #178, #147 ) ) REPRESENTATION_CONTEXT ( 'NONE', 'WORKASPACE' ) );
#62 = PRESENTATION_STYLE_ASSIGNMENT (( #65 ) ) ;
#63 = PRESENTATION_STYLE_ASSIGNMENT (( #92 ) ) ;
#64 = CIRCLE ( 'NONE', #91, 6.250000000000000000 ) ;
#65 = SURFACE_STYLE_USAGE ( .BOTH. , #182 ) ;
#66 = DIRECTION ( 'NONE',  ( -0.000000000000000000, -0.000000000000000000, -1.000000000000000000 ) ) ;
#67 = PRESENTATION_LAYER_ASSIGNMENT (  '', '', ( #197 ) ) ;
#68 = ADVANCED_FACE ( 'NONE', ( #51 ), #204, .T. ) ;
#69 = ORIENTED_EDGE ( 'NONE', *, *, #114, .F. ) ;
#70 = VERTEX_POINT ( 'NONE', #88 ) ;
#71 = ORIENTED_EDGE ( 'NONE', *, *, #185, .F. ) ;
#72 = CARTESIAN_POINT ( 'NONE',  ( -6.250000000000000000, 7.654042494670957606E-16, 0.1999999999999987899 ) ) ;
#73 = VECTOR ( 'NONE', #123, 1000.000000000000000 ) ;
#74 = EDGE_CURVE ( 'NONE', #21, #186, #161, .T. ) ;
#75 = FACE_OUTER_BOUND ( 'NONE', #167, .T. ) ;
#76 = SURFACE_SIDE_STYLE ('',( #49 ) ) ;
#77 = DIRECTION ( 'NONE',  ( -1.000000000000000000, 0.000000000000000000, 0.000000000000000000 ) ) ;
#78 =( NAMED_UNIT ( * ) PLANE_ANGLE_UNIT ( ) SI_UNIT ( $, .RADIAN. ) );
#79 = EDGE_CURVE ( 'NONE', #101, #154, #83, .T. ) ;
#80 = FACE_OUTER_BOUND ( 'NONE', #3, .T. ) ;
#81 =( NAMED_UNIT ( * ) PLANE_ANGLE_UNIT ( ) SI_UNIT ( $, .RADIAN. ) );
#82 = ADVANCED_FACE ( 'NONE', ( #42 ), #184, .T. ) ;
#83 = LINE ( 'NONE', #57, #73 ) ;
#84 = CARTESIAN_POINT ( 'NONE',  ( 0.000000000000000000, 0.000000000000000000, 1.600000000000000089 ) ) ;
#85 = ORIENTED_EDGE ( 'NONE', *, *, #211, .T. ) ;
#86 = VERTEX_POINT ( 'NONE', #90 ) ;
#87 = CARTESIAN_POINT ( 'NONE',  ( 0.000000000000000000, 0.000000000000000000, 1.600000000000000089 ) ) ;
#88 = CARTESIAN_POINT ( 'NONE',  ( 6.250000000000000000, 7.654042494670957606E-16, 0.1999999999999987899 ) ) ;
#89 = DIRECTION ( 'NONE',  ( -0.000000000000000000, -0.000000000000000000, 1.000000000000000000 ) ) ;
#90 = CARTESIAN_POINT ( 'NONE',  ( 6.050000000000000711, 0.000000000000000000, 0.000000000000000000 ) ) ;
#91 = AXIS2_PLACEMENT_3D ( 'NONE', #50, #36, #214 ) ;
#92 = SURFACE_STYLE_USAGE ( .BOTH. , #76 ) ;
#93 = FILL_AREA_STYLE_COLOUR ( '', #4 ) ;
#94 = DIRECTION ( 'NONE',  ( 0.000000000000000000, 0.000000000000000000, 1.000000000000000000 ) ) ;
#95 = EDGE_CURVE ( 'NONE', #35, #154, #174, .T. ) ;
#96 = CARTESIAN_POINT ( 'NONE',  ( 0.000000000000000000, 0.000000000000000000, 0.000000000000000000 ) ) ;
#97 = DIRECTION ( 'NONE',  ( -0.000000000000000000, -0.000000000000000000, 1.000000000000000000 ) ) ;
#98 = CIRCLE ( 'NONE', #164, 6.050000000000000711 ) ;
#99 = CARTESIAN_POINT ( 'NONE',  ( 6.250000000000000000, 7.654042494670957606E-16, 1.600000000000000089 ) ) ;
#100 = DIRECTION ( 'NONE',  ( -1.000000000000000000, 0.000000000000000000, 0.000000000000000000 ) ) ;
#101 = VERTEX_POINT ( 'NONE', #20 ) ;
#102 = ADVANCED_BREP_SHAPE_REPRESENTATION ( 'GLA11-012-9.5-VIS', ( #168, #48 ), #143 ) ;
#103 = CARTESIAN_POINT ( 'NONE',  ( 0.000000000000000000, 0.000000000000000000, 0.000000000000000000 ) ) ;
#104 = ORIENTED_EDGE ( 'NONE', *, *, #18, .F. ) ;
#105 = APPLICATION_PROTOCOL_DEFINITION ( 'draft international standard', 'automotive_design', 1998, #44 ) ;
#106 = EDGE_LOOP ( 'NONE', ( #137, #190, #118 ) ) ;
#107 = EDGE_CURVE ( 'NONE', #21, #101, #111, .T. ) ;
#108 = DIRECTION ( 'NONE',  ( -0.000000000000000000, -1.000000000000000000, 0.000000000000000000 ) ) ;
#109 = UNCERTAINTY_MEASURE_WITH_UNIT (LENGTH_MEASURE( 1.000000000000000082E-05 ), #16, 'distance_accuracy_value', 'NONE');
#110 = CARTESIAN_POINT ( 'NONE',  ( 0.000000000000000000, 0.000000000000000000, 0.1999999999999987899 ) ) ;
#111 = CIRCLE ( 'NONE', #189, 6.250000000000000000 ) ;
#112 = EDGE_CURVE ( 'NONE', #35, #86, #133, .T. ) ;
#113 = VECTOR ( 'NONE', #14, 1000.000000000000000 ) ;
#114 = EDGE_CURVE ( 'NONE', #154, #70, #29, .T. ) ;
#115 =( NAMED_UNIT ( * ) SI_UNIT ( $, .STERADIAN. ) SOLID_ANGLE_UNIT ( ) );
#116 = CYLINDRICAL_SURFACE ( 'NONE', #157, 6.250000000000000000 ) ;
#117 = VECTOR ( 'NONE', #54, 1000.000000000000114 ) ;
#118 = ORIENTED_EDGE ( 'NONE', *, *, #8, .F. ) ;
#119 = CARTESIAN_POINT ( 'NONE',  ( 0.000000000000000000, 0.000000000000000000, 0.1999999999999987899 ) ) ;
#120 = ORIENTED_EDGE ( 'NONE', *, *, #112, .T. ) ;
#121 = ADVANCED_FACE ( 'NONE', ( #149 ), #116, .T. ) ;
#122 = CARTESIAN_POINT ( 'NONE',  ( 0.000000000000000000, 0.000000000000000000, -2.444485294117647367 ) ) ;
#123 = DIRECTION ( 'NONE',  ( -0.000000000000000000, -0.000000000000000000, -1.000000000000000000 ) ) ;
#124 = ADVANCED_FACE ( 'NONE', ( #75 ), #28, .F. ) ;
#125 =( GEOMETRIC_REPRESENTATION_CONTEXT ( 3 ) GLOBAL_UNCERTAINTY_ASSIGNED_CONTEXT ( ( #56 ) ) GLOBAL_UNIT_ASSIGNED_CONTEXT ( ( #1, #81, #115 ) ) REPRESENTATION_CONTEXT ( 'NONE', 'WORKASPACE' ) );
#126 = PRESENTATION_LAYER_ASSIGNMENT (  '', '', ( #25 ) ) ;
#127 =( LENGTH_UNIT ( ) NAMED_UNIT ( * ) SI_UNIT ( .MILLI., .METRE. ) );
#128 = PRODUCT_DEFINITION ( 'Î´Öª', '', #207, #40 ) ;
#129 = CONICAL_SURFACE ( 'NONE', #38, 6.250000000000000000, 0.7853981633974504994 ) ;
#130 = FILL_AREA_STYLE_COLOUR ( '', #43 ) ;
#131 = CARTESIAN_POINT ( 'NONE',  ( 0.000000000000000000, 0.000000000000000000, 1.600000000000000089 ) ) ;
#132 = DIRECTION ( 'NONE',  ( -0.000000000000000000, -0.000000000000000000, -1.000000000000000000 ) ) ;
#133 = CIRCLE ( 'NONE', #9, 6.050000000000000711 ) ;
#134 = PRODUCT ( 'GLA11-012-9.5-VIS', 'GLA11-012-9.5-VIS', '', ( #138 ) ) ;
#135 = CARTESIAN_POINT ( 'NONE',  ( -6.050000000000000711, 7.531577814756223050E-16, 0.000000000000000000 ) ) ;
#136 = ADVANCED_FACE ( 'NONE', ( #148 ), #209, .T. ) ;
#137 = ORIENTED_EDGE ( 'NONE', *, *, #185, .T. ) ;
#138 = PRODUCT_CONTEXT ( 'NONE', #44, 'mechanical' ) ;
#139 = EDGE_LOOP ( 'NONE', ( #55, #156, #192, #205 ) ) ;
#140 = DIRECTION ( 'NONE',  ( 1.000000000000000000, -1.224646799147353207E-16, 0.000000000000000000 ) ) ;
#141 = CARTESIAN_POINT ( 'NONE',  ( 0.000000000000000000, 0.000000000000000000, -2.444485294117647367 ) ) ;
#142 = MECHANICAL_DESIGN_GEOMETRIC_PRESENTATION_REPRESENTATION (  '', ( #197 ), #125 ) ;
#143 =( GEOMETRIC_REPRESENTATION_CONTEXT ( 3 ) GLOBAL_UNCERTAINTY_ASSIGNED_CONTEXT ( ( #109 ) ) GLOBAL_UNIT_ASSIGNED_CONTEXT ( ( #16, #78, #27 ) ) REPRESENTATION_CONTEXT ( 'NONE', 'WORKASPACE' ) );
#144 = FILL_AREA_STYLE ('',( #93 ) ) ;
#145 = EDGE_CURVE ( 'NONE', #21, #70, #181, .T. ) ;
#146 = SURFACE_STYLE_FILL_AREA ( #144 ) ;
#147 =( NAMED_UNIT ( * ) SI_UNIT ( $, .STERADIAN. ) SOLID_ANGLE_UNIT ( ) );
#148 = FACE_OUTER_BOUND ( 'NONE', #106, .T. ) ;
#149 = FACE_OUTER_BOUND ( 'NONE', #139, .T. ) ;
#150 = DIRECTION ( 'NONE',  ( 1.000000000000000000, 0.000000000000000000, 0.000000000000000000 ) ) ;
#151 = AXIS2_PLACEMENT_3D ( 'NONE', #19, #216, #41 ) ;
#152 = ORIENTED_EDGE ( 'NONE', *, *, #74, .F. ) ;
#153 = FILL_AREA_STYLE ('',( #130 ) ) ;
#154 = VERTEX_POINT ( 'NONE', #60 ) ;
#155 = APPLICATION_PROTOCOL_DEFINITION ( 'draft international standard', 'automotive_design', 1998, #2 ) ;
#156 = ORIENTED_EDGE ( 'NONE', *, *, #145, .T. ) ;
#157 = AXIS2_PLACEMENT_3D ( 'NONE', #84, #179, #196 ) ;
#158 = DIRECTION ( 'NONE',  ( -1.224646799147353207E-16, -1.000000000000000000, -0.000000000000000000 ) ) ;
#159 = DIRECTION ( 'NONE',  ( 1.000000000000000000, 0.000000000000000000, 0.000000000000000000 ) ) ;
#160 = AXIS2_PLACEMENT_3D ( 'NONE', #165, #198, #150 ) ;
#161 = CIRCLE ( 'NONE', #215, 7.444485294117647811 ) ;
#162 = CARTESIAN_POINT ( 'NONE',  ( 0.000000000000000000, 0.000000000000000000, -2.444485294117647367 ) ) ;
#163 = DIRECTION ( 'NONE',  ( 1.000000000000000000, 0.000000000000000000, 0.000000000000000000 ) ) ;
#164 = AXIS2_PLACEMENT_3D ( 'NONE', #103, #66, #166 ) ;
#165 = CARTESIAN_POINT ( 'NONE',  ( 0.000000000000000000, 0.000000000000000000, 1.600000000000000089 ) ) ;
#166 = DIRECTION ( 'NONE',  ( 1.000000000000000000, 0.000000000000000000, 0.000000000000000000 ) ) ;
#167 = EDGE_LOOP ( 'NONE', ( #85, #120 ) ) ;
#168 = MANIFOLD_SOLID_BREP ( 'µ¹½Ç1', #170 ) ;
#169 = ADVANCED_FACE ( 'NONE', ( #31 ), #129, .T. ) ;
#170 = CLOSED_SHELL ( 'NONE', ( #82, #136, #121, #177, #124, #68, #169 ) ) ;
#171 = ORIENTED_EDGE ( 'NONE', *, *, #114, .T. ) ;
#172 = ORIENTED_EDGE ( 'NONE', *, *, #211, .F. ) ;
#173 = DIRECTION ( 'NONE',  ( -1.000000000000000000, 0.000000000000000000, 0.000000000000000000 ) ) ;
#174 = LINE ( 'NONE', #72, #117 ) ;
#175 = VECTOR ( 'NONE', #58, 1000.000000000000114 ) ;
#176 = EDGE_LOOP ( 'NONE', ( #202, #172, #53, #69 ) ) ;
#177 = ADVANCED_FACE ( 'NONE', ( #80 ), #183, .T. ) ;
#178 =( NAMED_UNIT ( * ) PLANE_ANGLE_UNIT ( ) SI_UNIT ( $, .RADIAN. ) );
#179 = DIRECTION ( 'NONE',  ( -0.000000000000000000, -0.000000000000000000, -1.000000000000000000 ) ) ;
#180 = AXIS2_PLACEMENT_3D ( 'NONE', #162, #13, #77 ) ;
#181 = LINE ( 'NONE', #99, #113 ) ;
#182 = SURFACE_SIDE_STYLE ('',( #146 ) ) ;
#183 = CYLINDRICAL_SURFACE ( 'NONE', #22, 6.250000000000000000 ) ;
#184 = CONICAL_SURFACE ( 'NONE', #199, 6.250000000000000000, 0.7853981633974504994 ) ;
#185 = EDGE_CURVE ( 'NONE', #101, #21, #46, .T. ) ;
#186 = VERTEX_POINT ( 'NONE', #213 ) ;
#187 = ORIENTED_EDGE ( 'NONE', *, *, #200, .F. ) ;
#188 = CARTESIAN_POINT ( 'NONE',  ( 0.000000000000000000, 0.000000000000000000, 0.000000000000000000 ) ) ;
#189 = AXIS2_PLACEMENT_3D ( 'NONE', #87, #94, #210 ) ;
#190 = ORIENTED_EDGE ( 'NONE', *, *, #74, .T. ) ;
#191 = DIRECTION ( 'NONE',  ( 1.000000000000000000, 0.000000000000000000, 0.000000000000000000 ) ) ;
#192 = ORIENTED_EDGE ( 'NONE', *, *, #200, .T. ) ;
#193 = ORIENTED_EDGE ( 'NONE', *, *, #107, .T. ) ;
#194 = AXIS2_PLACEMENT_3D ( 'NONE', #96, #212, #45 ) ;
#195 = CARTESIAN_POINT ( 'NONE',  ( 0.000000000000000000, 0.000000000000000000, 0.1999999999999987899 ) ) ;
#196 = DIRECTION ( 'NONE',  ( -1.000000000000000000, 0.000000000000000000, 0.000000000000000000 ) ) ;
#197 = STYLED_ITEM ( 'NONE', ( #63 ), #168 ) ;
#198 = DIRECTION ( 'NONE',  ( 0.000000000000000000, 0.000000000000000000, 1.000000000000000000 ) ) ;
#199 = AXIS2_PLACEMENT_3D ( 'NONE', #110, #89, #159 ) ;
#200 = EDGE_CURVE ( 'NONE', #70, #154, #64, .T. ) ;
#201 = ORIENTED_EDGE ( 'NONE', *, *, #112, .F. ) ;
#202 = ORIENTED_EDGE ( 'NONE', *, *, #95, .F. ) ;
#203 = SHAPE_DEFINITION_REPRESENTATION ( #32, #102 ) ;
#204 = SPHERICAL_SURFACE ( 'NONE', #12, 7.444485294117647811 ) ;
#205 = ORIENTED_EDGE ( 'NONE', *, *, #79, .F. ) ;
#206 = LINE ( 'NONE', #5, #175 ) ;
#207 = PRODUCT_DEFINITION_FORMATION_WITH_SPECIFIED_SOURCE ( 'ÈÎºÎ', '', #134, .NOT_KNOWN. ) ;
#208 = CIRCLE ( 'NONE', #151, 7.444485294117647811 ) ;
#209 = SPHERICAL_SURFACE ( 'NONE', #180, 7.444485294117647811 ) ;
#210 = DIRECTION ( 'NONE',  ( 1.000000000000000000, 0.000000000000000000, 0.000000000000000000 ) ) ;
#211 = EDGE_CURVE ( 'NONE', #86, #35, #98, .T. ) ;
#212 = DIRECTION ( 'NONE',  ( 0.000000000000000000, 0.000000000000000000, 1.000000000000000000 ) ) ;
#213 = CARTESIAN_POINT ( 'NONE',  ( -4.558432543370360034E-16, 0.000000000000000000, 5.000000000000000000 ) ) ;
#214 = DIRECTION ( 'NONE',  ( 1.000000000000000000, 0.000000000000000000, 0.000000000000000000 ) ) ;
#215 = AXIS2_PLACEMENT_3D ( 'NONE', #141, #158, #140 ) ;
#216 = DIRECTION ( 'NONE',  ( 0.000000000000000000, 1.000000000000000000, 0.000000000000000000 ) ) ;
ENDSEC;
END-ISO-10303-21;
