ISO-10303-21;
HEADER;
FILE_DESCRIPTION (( 'STEP AP214' ),
    '1' );
FILE_NAME ('GLA11-012-9.5-NIR.STEP',
    '2024-08-09T08:24:17',
    ( 'Windows User' ),
    ( 'P R C' ),
    'SwSTEP 2.0',
    'SolidWorks 2022',
    '' );
FILE_SCHEMA (( 'AUTOMOTIVE_DESIGN' ));
ENDSEC;

DATA;
#1 = ORIENTED_EDGE ( 'NONE', *, *, #104, .F. ) ;
#2 = EDGE_CURVE ( 'NONE', #108, #199, #188, .T. ) ;
#3 = FILL_AREA_STYLE ('',( #51 ) ) ;
#4 = DIRECTION ( 'NONE',  ( 1.000000000000000000, 0.000000000000000000, 0.000000000000000000 ) ) ;
#5 = VECTOR ( 'NONE', #168, 1000.000000000000000 ) ;
#6 = CARTESIAN_POINT ( 'NONE',  ( 6.250000000000000000, 0.000000000000000000, 0.1999999999999987899 ) ) ;
#7 = CARTESIAN_POINT ( 'NONE',  ( 6.250000000000000000, 7.654042494670957606E-16, 0.1999999999999987899 ) ) ;
#8 = AXIS2_PLACEMENT_3D ( 'NONE', #93, #128, #80 ) ;
#9 = CARTESIAN_POINT ( 'NONE',  ( 0.000000000000000000, 0.000000000000000000, 0.000000000000000000 ) ) ;
#10 = APPLICATION_PROTOCOL_DEFINITION ( 'draft international standard', 'automotive_design', 1998, #63 ) ;
#11 = ORIENTED_EDGE ( 'NONE', *, *, #61, .F. ) ;
#12 = AXIS2_PLACEMENT_3D ( 'NONE', #130, #191, #158 ) ;
#13 = APPLICATION_CONTEXT ( 'automotive_design' ) ;
#14 = ORIENTED_EDGE ( 'NONE', *, *, #141, .F. ) ;
#15 = SURFACE_STYLE_FILL_AREA ( #3 ) ;
#16 = CARTESIAN_POINT ( 'NONE',  ( 0.000000000000000000, 0.000000000000000000, 0.1999999999999987899 ) ) ;
#17 = EDGE_CURVE ( 'NONE', #122, #199, #116, .T. ) ;
#18 = SURFACE_SIDE_STYLE ('',( #15 ) ) ;
#19 = CARTESIAN_POINT ( 'NONE',  ( 0.000000000000000000, 0.000000000000000000, 0.000000000000000000 ) ) ;
#20 = VERTEX_POINT ( 'NONE', #112 ) ;
#21 = ADVANCED_FACE ( 'NONE', ( #53 ), #174, .T. ) ;
#22 = CARTESIAN_POINT ( 'NONE',  ( 0.000000000000000000, 0.000000000000000000, 0.1999999999999987899 ) ) ;
#23 = PLANE ( 'NONE',  #192 ) ;
#24 = PRESENTATION_LAYER_ASSIGNMENT (  '', '', ( #159 ) ) ;
#25 = CARTESIAN_POINT ( 'NONE',  ( -6.250000000000000000, 0.000000000000000000, 1.600000000000000089 ) ) ;
#26 = CIRCLE ( 'NONE', #206, 6.050000000000000711 ) ;
#27 = PRODUCT_DEFINITION_SHAPE ( 'NONE', 'NONE',  #137 ) ;
#28 = ORIENTED_EDGE ( 'NONE', *, *, #50, .F. ) ;
#29 = CONICAL_SURFACE ( 'NONE', #106, 6.250000000000000000, 0.7853981633974504994 ) ;
#30 = SURFACE_STYLE_FILL_AREA ( #87 ) ;
#31 = CARTESIAN_POINT ( 'NONE',  ( 6.050000000000000711, 0.000000000000000000, 0.000000000000000000 ) ) ;
#32 = ADVANCED_FACE ( 'NONE', ( #125 ), #189, .T. ) ;
#33 = UNCERTAINTY_MEASURE_WITH_UNIT (LENGTH_MEASURE( 1.000000000000000082E-05 ), #166, 'distance_accuracy_value', 'NONE');
#34 = LINE ( 'NONE', #105, #5 ) ;
#35 = PRESENTATION_STYLE_ASSIGNMENT (( #73 ) ) ;
#36 = CIRCLE ( 'NONE', #92, 6.250000000000000000 ) ;
#37 = ORIENTED_EDGE ( 'NONE', *, *, #61, .T. ) ;
#38 = ORIENTED_EDGE ( 'NONE', *, *, #50, .T. ) ;
#39 = DIRECTION ( 'NONE',  ( -1.224646799147353207E-16, -1.000000000000000000, -0.000000000000000000 ) ) ;
#40 = DIRECTION ( 'NONE',  ( 0.7071067811865490160, 0.000000000000000000, 0.7071067811865460184 ) ) ;
#41 = CARTESIAN_POINT ( 'NONE',  ( -6.250000000000000000, 0.000000000000000000, 1.600000000000000089 ) ) ;
#42 = COLOUR_RGB ( '',1.000000000000000000, 1.000000000000000000, 1.000000000000000000 ) ;
#43 = CARTESIAN_POINT ( 'NONE',  ( 0.000000000000000000, 0.000000000000000000, -2.444485294117647367 ) ) ;
#44 = FACE_OUTER_BOUND ( 'NONE', #207, .T. ) ;
#45 = CIRCLE ( 'NONE', #65, 6.250000000000000000 ) ;
#46 = ADVANCED_FACE ( 'NONE', ( #140 ), #29, .T. ) ;
#47 = UNCERTAINTY_MEASURE_WITH_UNIT (LENGTH_MEASURE( 1.000000000000000082E-05 ), #102, 'distance_accuracy_value', 'NONE');
#48 = ORIENTED_EDGE ( 'NONE', *, *, #2, .T. ) ;
#49 = ORIENTED_EDGE ( 'NONE', *, *, #177, .T. ) ;
#50 = EDGE_CURVE ( 'NONE', #213, #122, #90, .T. ) ;
#51 = FILL_AREA_STYLE_COLOUR ( '', #42 ) ;
#52 = EDGE_LOOP ( 'NONE', ( #154, #142, #97 ) ) ;
#53 = FACE_OUTER_BOUND ( 'NONE', #52, .T. ) ;
#54 = AXIS2_PLACEMENT_3D ( 'NONE', #126, #39, #58 ) ;
#55 = DIRECTION ( 'NONE',  ( -1.000000000000000000, 0.000000000000000000, 0.000000000000000000 ) ) ;
#56 = DIRECTION ( 'NONE',  ( 0.000000000000000000, 1.000000000000000000, 0.000000000000000000 ) ) ;
#57 = DIRECTION ( 'NONE',  ( -0.000000000000000000, -0.000000000000000000, 1.000000000000000000 ) ) ;
#58 = DIRECTION ( 'NONE',  ( 1.000000000000000000, -1.224646799147353207E-16, 0.000000000000000000 ) ) ;
#59 = EDGE_CURVE ( 'NONE', #108, #213, #85, .T. ) ;
#60 = CYLINDRICAL_SURFACE ( 'NONE', #12, 6.250000000000000000 ) ;
#61 = EDGE_CURVE ( 'NONE', #20, #122, #34, .T. ) ;
#62 = SHAPE_DEFINITION_REPRESENTATION ( #27, #161 ) ;
#63 = APPLICATION_CONTEXT ( 'automotive_design' ) ;
#64 = STYLED_ITEM ( 'NONE', ( #182 ), #161 ) ;
#65 = AXIS2_PLACEMENT_3D ( 'NONE', #16, #121, #184 ) ;
#66 = ORIENTED_EDGE ( 'NONE', *, *, #162, .F. ) ;
#67 = EDGE_LOOP ( 'NONE', ( #172, #48, #78, #28 ) ) ;
#68 = PRODUCT ( 'GLA11-012-9.5-NIR', 'GLA11-012-9.5-NIR', '', ( #99 ) ) ;
#69 = VERTEX_POINT ( 'NONE', #194 ) ;
#70 =( NAMED_UNIT ( * ) PLANE_ANGLE_UNIT ( ) SI_UNIT ( $, .RADIAN. ) );
#71 =( GEOMETRIC_REPRESENTATION_CONTEXT ( 3 ) GLOBAL_UNCERTAINTY_ASSIGNED_CONTEXT ( ( #47 ) ) GLOBAL_UNIT_ASSIGNED_CONTEXT ( ( #102, #107, #120 ) ) REPRESENTATION_CONTEXT ( 'NONE', 'WORKASPACE' ) );
#72 = ORIENTED_EDGE ( 'NONE', *, *, #2, .F. ) ;
#73 = SURFACE_STYLE_USAGE ( .BOTH. , #18 ) ;
#74 = ORIENTED_EDGE ( 'NONE', *, *, #181, .T. ) ;
#75 = CARTESIAN_POINT ( 'NONE',  ( 0.000000000000000000, 0.000000000000000000, 0.1999999999999987899 ) ) ;
#76 = DIRECTION ( 'NONE',  ( -0.000000000000000000, -1.000000000000000000, 0.000000000000000000 ) ) ;
#77 = CIRCLE ( 'NONE', #54, 7.444485294117647811 ) ;
#78 = ORIENTED_EDGE ( 'NONE', *, *, #17, .F. ) ;
#79 = ADVANCED_FACE ( 'NONE', ( #44 ), #23, .F. ) ;
#80 = DIRECTION ( 'NONE',  ( -1.000000000000000000, 0.000000000000000000, 0.000000000000000000 ) ) ;
#81 = SPHERICAL_SURFACE ( 'NONE', #8, 7.444485294117647811 ) ;
#82 = CIRCLE ( 'NONE', #179, 6.250000000000000000 ) ;
#83 = ADVANCED_FACE ( 'NONE', ( #114 ), #81, .T. ) ;
#84 = EDGE_LOOP ( 'NONE', ( #135, #202, #49 ) ) ;
#85 = CIRCLE ( 'NONE', #119, 6.050000000000000711 ) ;
#86 =( NAMED_UNIT ( * ) SI_UNIT ( $, .STERADIAN. ) SOLID_ANGLE_UNIT ( ) );
#87 = FILL_AREA_STYLE ('',( #167 ) ) ;
#88 = DIRECTION ( 'NONE',  ( -0.7071067811865490160, 8.659560562354953812E-17, 0.7071067811865460184 ) ) ;
#89 = CARTESIAN_POINT ( 'NONE',  ( 0.000000000000000000, 0.000000000000000000, 0.1999999999999987899 ) ) ;
#90 = LINE ( 'NONE', #6, #187 ) ;
#91 = DIRECTION ( 'NONE',  ( 0.000000000000000000, 0.000000000000000000, 1.000000000000000000 ) ) ;
#92 = AXIS2_PLACEMENT_3D ( 'NONE', #175, #193, #146 ) ;
#93 = CARTESIAN_POINT ( 'NONE',  ( 0.000000000000000000, 0.000000000000000000, -2.444485294117647367 ) ) ;
#94 = DIRECTION ( 'NONE',  ( -0.000000000000000000, -0.000000000000000000, -1.000000000000000000 ) ) ;
#95 = PRODUCT_RELATED_PRODUCT_CATEGORY ( 'part', '', ( #68 ) ) ;
#96 = DIRECTION ( 'NONE',  ( 1.000000000000000000, 0.000000000000000000, 0.000000000000000000 ) ) ;
#97 = ORIENTED_EDGE ( 'NONE', *, *, #177, .F. ) ;
#98 = AXIS2_PLACEMENT_3D ( 'NONE', #150, #212, #96 ) ;
#99 = PRODUCT_CONTEXT ( 'NONE', #13, 'mechanical' ) ;
#100 = EDGE_CURVE ( 'NONE', #20, #69, #77, .T. ) ;
#101 = ORIENTED_EDGE ( 'NONE', *, *, #17, .T. ) ;
#102 =( LENGTH_UNIT ( ) NAMED_UNIT ( * ) SI_UNIT ( .MILLI., .METRE. ) );
#103 = DIRECTION ( 'NONE',  ( 0.000000000000000000, 0.000000000000000000, 1.000000000000000000 ) ) ;
#104 = EDGE_CURVE ( 'NONE', #213, #108, #26, .T. ) ;
#105 = CARTESIAN_POINT ( 'NONE',  ( 6.250000000000000000, 7.654042494670957606E-16, 1.600000000000000089 ) ) ;
#106 = AXIS2_PLACEMENT_3D ( 'NONE', #22, #204, #123 ) ;
#107 =( NAMED_UNIT ( * ) PLANE_ANGLE_UNIT ( ) SI_UNIT ( $, .RADIAN. ) );
#108 = VERTEX_POINT ( 'NONE', #178 ) ;
#109 =( LENGTH_UNIT ( ) NAMED_UNIT ( * ) SI_UNIT ( .MILLI., .METRE. ) );
#110 = DIRECTION ( 'NONE',  ( -1.000000000000000000, 0.000000000000000000, 0.000000000000000000 ) ) ;
#111 = CARTESIAN_POINT ( 'NONE',  ( 0.000000000000000000, 0.000000000000000000, 1.600000000000000089 ) ) ;
#112 = CARTESIAN_POINT ( 'NONE',  ( 6.250000000000000000, 7.654042494670957606E-16, 1.600000000000000089 ) ) ;
#113 = LINE ( 'NONE', #25, #133 ) ;
#114 = FACE_OUTER_BOUND ( 'NONE', #84, .T. ) ;
#115 = ADVANCED_FACE ( 'NONE', ( #145 ), #60, .T. ) ;
#116 = CIRCLE ( 'NONE', #169, 6.250000000000000000 ) ;
#117 =( GEOMETRIC_REPRESENTATION_CONTEXT ( 3 ) GLOBAL_UNCERTAINTY_ASSIGNED_CONTEXT ( ( #176 ) ) GLOBAL_UNIT_ASSIGNED_CONTEXT ( ( #109, #70, #200 ) ) REPRESENTATION_CONTEXT ( 'NONE', 'WORKASPACE' ) );
#118 = VERTEX_POINT ( 'NONE', #41 ) ;
#119 = AXIS2_PLACEMENT_3D ( 'NONE', #19, #144, #127 ) ;
#120 =( NAMED_UNIT ( * ) SI_UNIT ( $, .STERADIAN. ) SOLID_ANGLE_UNIT ( ) );
#121 = DIRECTION ( 'NONE',  ( -0.000000000000000000, -0.000000000000000000, 1.000000000000000000 ) ) ;
#122 = VERTEX_POINT ( 'NONE', #7 ) ;
#123 = DIRECTION ( 'NONE',  ( 1.000000000000000000, 0.000000000000000000, 0.000000000000000000 ) ) ;
#124 = AXIS2_PLACEMENT_3D ( 'NONE', #75, #170, #139 ) ;
#125 = FACE_OUTER_BOUND ( 'NONE', #180, .T. ) ;
#126 = CARTESIAN_POINT ( 'NONE',  ( 0.000000000000000000, 0.000000000000000000, -2.444485294117647367 ) ) ;
#127 = DIRECTION ( 'NONE',  ( 1.000000000000000000, 0.000000000000000000, 0.000000000000000000 ) ) ;
#128 = DIRECTION ( 'NONE',  ( -0.000000000000000000, -1.000000000000000000, 0.000000000000000000 ) ) ;
#129 = DIRECTION ( 'NONE',  ( 1.000000000000000000, 0.000000000000000000, -0.000000000000000000 ) ) ;
#130 = CARTESIAN_POINT ( 'NONE',  ( 0.000000000000000000, 0.000000000000000000, 1.600000000000000089 ) ) ;
#131 = PRODUCT_DEFINITION_CONTEXT ( 'detailed design', #63, 'design' ) ;
#132 = EDGE_CURVE ( 'NONE', #118, #199, #113, .T. ) ;
#133 = VECTOR ( 'NONE', #94, 1000.000000000000000 ) ;
#134 = ORIENTED_EDGE ( 'NONE', *, *, #132, .T. ) ;
#135 = ORIENTED_EDGE ( 'NONE', *, *, #100, .F. ) ;
#136 = SURFACE_SIDE_STYLE ('',( #30 ) ) ;
#137 = PRODUCT_DEFINITION ( 'Î´Öª', '', #197, #131 ) ;
#138 = ORIENTED_EDGE ( 'NONE', *, *, #181, .F. ) ;
#139 = DIRECTION ( 'NONE',  ( 1.000000000000000000, 0.000000000000000000, 0.000000000000000000 ) ) ;
#140 = FACE_OUTER_BOUND ( 'NONE', #165, .T. ) ;
#141 = EDGE_CURVE ( 'NONE', #20, #118, #82, .T. ) ;
#142 = ORIENTED_EDGE ( 'NONE', *, *, #100, .T. ) ;
#143 = AXIS2_PLACEMENT_3D ( 'NONE', #43, #56, #103 ) ;
#144 = DIRECTION ( 'NONE',  ( -0.000000000000000000, -0.000000000000000000, -1.000000000000000000 ) ) ;
#145 = FACE_OUTER_BOUND ( 'NONE', #155, .T. ) ;
#146 = DIRECTION ( 'NONE',  ( 1.000000000000000000, 0.000000000000000000, 0.000000000000000000 ) ) ;
#147 = DIRECTION ( 'NONE',  ( 1.000000000000000000, 0.000000000000000000, 0.000000000000000000 ) ) ;
#148 = CLOSED_SHELL ( 'NONE', ( #198, #21, #32, #115, #79, #83, #46 ) ) ;
#149 =( GEOMETRIC_REPRESENTATION_CONTEXT ( 3 ) GLOBAL_UNCERTAINTY_ASSIGNED_CONTEXT ( ( #33 ) ) GLOBAL_UNIT_ASSIGNED_CONTEXT ( ( #166, #186, #86 ) ) REPRESENTATION_CONTEXT ( 'NONE', 'WORKASPACE' ) );
#150 = CARTESIAN_POINT ( 'NONE',  ( 0.000000000000000000, 0.000000000000000000, 0.000000000000000000 ) ) ;
#151 = PRESENTATION_LAYER_ASSIGNMENT (  '', '', ( #64 ) ) ;
#152 = ORIENTED_EDGE ( 'NONE', *, *, #132, .F. ) ;
#153 = SURFACE_STYLE_USAGE ( .BOTH. , #136 ) ;
#154 = ORIENTED_EDGE ( 'NONE', *, *, #162, .T. ) ;
#155 = EDGE_LOOP ( 'NONE', ( #11, #66, #134, #74 ) ) ;
#156 = DIRECTION ( 'NONE',  ( -0.000000000000000000, -0.000000000000000000, -1.000000000000000000 ) ) ;
#157 = DIRECTION ( 'NONE',  ( -0.000000000000000000, -0.000000000000000000, -1.000000000000000000 ) ) ;
#158 = DIRECTION ( 'NONE',  ( -1.000000000000000000, 0.000000000000000000, 0.000000000000000000 ) ) ;
#159 = STYLED_ITEM ( 'NONE', ( #35 ), #164 ) ;
#160 = DIRECTION ( 'NONE',  ( 1.000000000000000000, 0.000000000000000000, 0.000000000000000000 ) ) ;
#161 = ADVANCED_BREP_SHAPE_REPRESENTATION ( 'GLA11-012-9.5-NIR', ( #164, #98 ), #149 ) ;
#162 = EDGE_CURVE ( 'NONE', #118, #20, #36, .T. ) ;
#163 = MECHANICAL_DESIGN_GEOMETRIC_PRESENTATION_REPRESENTATION (  '', ( #159 ), #71 ) ;
#164 = MANIFOLD_SOLID_BREP ( 'µ¹½Ç1', #148 ) ;
#165 = EDGE_LOOP ( 'NONE', ( #72, #1, #38, #138 ) ) ;
#166 =( LENGTH_UNIT ( ) NAMED_UNIT ( * ) SI_UNIT ( .MILLI., .METRE. ) );
#167 = FILL_AREA_STYLE_COLOUR ( '', #214 ) ;
#168 = DIRECTION ( 'NONE',  ( -0.000000000000000000, -0.000000000000000000, -1.000000000000000000 ) ) ;
#169 = AXIS2_PLACEMENT_3D ( 'NONE', #89, #57, #4 ) ;
#170 = DIRECTION ( 'NONE',  ( -0.000000000000000000, -0.000000000000000000, 1.000000000000000000 ) ) ;
#171 = CARTESIAN_POINT ( 'NONE',  ( -6.250000000000000000, 7.654042494670957606E-16, 0.1999999999999987899 ) ) ;
#172 = ORIENTED_EDGE ( 'NONE', *, *, #59, .F. ) ;
#173 = DIRECTION ( 'NONE',  ( 0.000000000000000000, 0.000000000000000000, 1.000000000000000000 ) ) ;
#174 = SPHERICAL_SURFACE ( 'NONE', #215, 7.444485294117647811 ) ;
#175 = CARTESIAN_POINT ( 'NONE',  ( 0.000000000000000000, 0.000000000000000000, 1.600000000000000089 ) ) ;
#176 = UNCERTAINTY_MEASURE_WITH_UNIT (LENGTH_MEASURE( 1.000000000000000082E-05 ), #109, 'distance_accuracy_value', 'NONE');
#177 = EDGE_CURVE ( 'NONE', #118, #69, #201, .T. ) ;
#178 = CARTESIAN_POINT ( 'NONE',  ( -6.050000000000000711, 7.531577814756223050E-16, 0.000000000000000000 ) ) ;
#179 = AXIS2_PLACEMENT_3D ( 'NONE', #111, #91, #160 ) ;
#180 = EDGE_LOOP ( 'NONE', ( #14, #37, #101, #152 ) ) ;
#181 = EDGE_CURVE ( 'NONE', #199, #122, #45, .T. ) ;
#182 = PRESENTATION_STYLE_ASSIGNMENT (( #153 ) ) ;
#183 = MECHANICAL_DESIGN_GEOMETRIC_PRESENTATION_REPRESENTATION (  '', ( #64 ), #117 ) ;
#184 = DIRECTION ( 'NONE',  ( 1.000000000000000000, 0.000000000000000000, 0.000000000000000000 ) ) ;
#185 = CARTESIAN_POINT ( 'NONE',  ( 0.000000000000000000, 0.000000000000000000, -2.444485294117647367 ) ) ;
#186 =( NAMED_UNIT ( * ) PLANE_ANGLE_UNIT ( ) SI_UNIT ( $, .RADIAN. ) );
#187 = VECTOR ( 'NONE', #40, 1000.000000000000114 ) ;
#188 = LINE ( 'NONE', #171, #210 ) ;
#189 = CYLINDRICAL_SURFACE ( 'NONE', #196, 6.250000000000000000 ) ;
#190 = ORIENTED_EDGE ( 'NONE', *, *, #59, .T. ) ;
#191 = DIRECTION ( 'NONE',  ( -0.000000000000000000, -0.000000000000000000, -1.000000000000000000 ) ) ;
#192 = AXIS2_PLACEMENT_3D ( 'NONE', #209, #173, #129 ) ;
#193 = DIRECTION ( 'NONE',  ( 0.000000000000000000, 0.000000000000000000, 1.000000000000000000 ) ) ;
#194 = CARTESIAN_POINT ( 'NONE',  ( -4.558432543370360034E-16, 0.000000000000000000, 5.000000000000000000 ) ) ;
#195 = CONICAL_SURFACE ( 'NONE', #124, 6.250000000000000000, 0.7853981633974504994 ) ;
#196 = AXIS2_PLACEMENT_3D ( 'NONE', #208, #156, #110 ) ;
#197 = PRODUCT_DEFINITION_FORMATION_WITH_SPECIFIED_SOURCE ( 'ÈÎºÎ', '', #68, .NOT_KNOWN. ) ;
#198 = ADVANCED_FACE ( 'NONE', ( #205 ), #195, .T. ) ;
#199 = VERTEX_POINT ( 'NONE', #203 ) ;
#200 =( NAMED_UNIT ( * ) SI_UNIT ( $, .STERADIAN. ) SOLID_ANGLE_UNIT ( ) );
#201 = CIRCLE ( 'NONE', #143, 7.444485294117647811 ) ;
#202 = ORIENTED_EDGE ( 'NONE', *, *, #141, .T. ) ;
#203 = CARTESIAN_POINT ( 'NONE',  ( -6.250000000000000000, 0.000000000000000000, 0.1999999999999987899 ) ) ;
#204 = DIRECTION ( 'NONE',  ( -0.000000000000000000, -0.000000000000000000, 1.000000000000000000 ) ) ;
#205 = FACE_OUTER_BOUND ( 'NONE', #67, .T. ) ;
#206 = AXIS2_PLACEMENT_3D ( 'NONE', #9, #157, #147 ) ;
#207 = EDGE_LOOP ( 'NONE', ( #216, #190 ) ) ;
#208 = CARTESIAN_POINT ( 'NONE',  ( 0.000000000000000000, 0.000000000000000000, 1.600000000000000089 ) ) ;
#209 = CARTESIAN_POINT ( 'NONE',  ( 0.000000000000000000, 0.000000000000000000, 0.000000000000000000 ) ) ;
#210 = VECTOR ( 'NONE', #88, 1000.000000000000114 ) ;
#211 = APPLICATION_PROTOCOL_DEFINITION ( 'draft international standard', 'automotive_design', 1998, #13 ) ;
#212 = DIRECTION ( 'NONE',  ( 0.000000000000000000, 0.000000000000000000, 1.000000000000000000 ) ) ;
#213 = VERTEX_POINT ( 'NONE', #31 ) ;
#214 = COLOUR_RGB ( '',1.000000000000000000, 1.000000000000000000, 1.000000000000000000 ) ;
#215 = AXIS2_PLACEMENT_3D ( 'NONE', #185, #76, #55 ) ;
#216 = ORIENTED_EDGE ( 'NONE', *, *, #104, .T. ) ;
ENDSEC;
END-ISO-10303-21;
