ISO-10303-21;
HEADER;
FILE_DESCRIPTION (( 'STEP AP214' ),
    '1' );
FILE_NAME ('145005.STEP',
    '2019-05-06T07:00:10',
    ( 'user' ),
    ( 'Î¢ÈíÖÐ¹ú' ),
    'SwSTEP 2.0',
    'SolidWorks 2016',
    '' );
FILE_SCHEMA (( 'AUTOMOTIVE_DESIGN' ));
ENDSEC;

DATA;
#1 = AXIS2_PLACEMENT_3D ( 'NONE', #290, #13, #133 ) ;
#2 = EDGE_LOOP ( 'NONE', ( #99, #181, #328 ) ) ;
#3 = VERTEX_POINT ( 'NONE', #250 ) ;
#4 =( LENGTH_UNIT ( ) NAMED_UNIT ( * ) SI_UNIT ( .MILLI., .METRE. ) );
#5 = VERTEX_POINT ( 'NONE', #95 ) ;
#6 = DIRECTION ( 'NONE',  ( 0.0000000000000000000, 0.0000000000000000000, -1.000000000000000000 ) ) ;
#7 = AXIS2_PLACEMENT_3D ( 'NONE', #152, #278, #201 ) ;
#8 = ORIENTED_EDGE ( 'NONE', *, *, #281, .F. ) ;
#9 = SURFACE_STYLE_USAGE ( .BOTH. , #160 ) ;
#10 = LINE ( 'NONE', #126, #145 ) ;
#11 = DIRECTION ( 'NONE',  ( 0.0000000000000000000, 0.0000000000000000000, -1.000000000000000000 ) ) ;
#12 = DIRECTION ( 'NONE',  ( 0.0000000000000000000, 0.0000000000000000000, 1.000000000000000000 ) ) ;
#13 = DIRECTION ( 'NONE',  ( -1.000000000000000000, -0.0000000000000000000, -0.0000000000000000000 ) ) ;
#14 = FACE_OUTER_BOUND ( 'NONE', #122, .T. ) ;
#15 = CIRCLE ( 'NONE', #101, 12.10000000000000000 ) ;
#16 =( NAMED_UNIT ( * ) SI_UNIT ( $, .STERADIAN. ) SOLID_ANGLE_UNIT ( ) );
#17 = MECHANICAL_DESIGN_GEOMETRIC_PRESENTATION_REPRESENTATION (  '', ( #118 ), #156 ) ;
#18 = ADVANCED_FACE ( 'NONE', ( #320 ), #107, .T. ) ;
#19 = DIRECTION ( 'NONE',  ( -1.000000000000000000, -0.0000000000000000000, -0.0000000000000000000 ) ) ;
#20 = EDGE_CURVE ( 'NONE', #113, #207, #103, .T. ) ;
#21 = CARTESIAN_POINT ( 'NONE',  ( 6.533961575078826000, 0.0000000000000000000, 2.499999999999997800 ) ) ;
#22 = EDGE_LOOP ( 'NONE', ( #8, #94, #238 ) ) ;
#23 = VECTOR ( 'NONE', #111, 1000.000000000000000 ) ;
#24 = EDGE_CURVE ( 'NONE', #266, #28, #44, .T. ) ;
#25 = EDGE_CURVE ( 'NONE', #207, #5, #170, .T. ) ;
#26 = CARTESIAN_POINT ( 'NONE',  ( 4.068371283739000300, 0.0000000000000000000, 0.0000000000000000000 ) ) ;
#27 = UNCERTAINTY_MEASURE_WITH_UNIT (LENGTH_MEASURE( 1.000000000000000100E-005 ), #200, 'distance_accuracy_value', 'NONE');
#28 = VERTEX_POINT ( 'NONE', #258 ) ;
#29 = AXIS2_PLACEMENT_3D ( 'NONE', #65, #291, #92 ) ;
#30 = CARTESIAN_POINT ( 'NONE',  ( 6.533961575078826000, 3.061616997868381200E-016, -2.499999999999997800 ) ) ;
#31 = DIRECTION ( 'NONE',  ( -1.000000000000000000, -0.0000000000000000000, -0.0000000000000000000 ) ) ;
#32 = PRESENTATION_STYLE_ASSIGNMENT (( #9 ) ) ;
#33 = DIRECTION ( 'NONE',  ( 0.0000000000000000000, -1.224646799147353200E-016, 1.000000000000000000 ) ) ;
#34 = DIRECTION ( 'NONE',  ( 0.0000000000000000000, 1.000000000000000000, 0.0000000000000000000 ) ) ;
#35 =( NAMED_UNIT ( * ) PLANE_ANGLE_UNIT ( ) SI_UNIT ( $, .RADIAN. ) );
#36 = DIRECTION ( 'NONE',  ( 0.0000000000000000000, 1.000000000000000000, 0.0000000000000000000 ) ) ;
#37 = AXIS2_PLACEMENT_3D ( 'NONE', #98, #108, #264 ) ;
#38 = ORIENTED_EDGE ( 'NONE', *, *, #217, .T. ) ;
#39 = CARTESIAN_POINT ( 'NONE',  ( -5.304957294480167300, 0.0000000000000000000, 0.0000000000000000000 ) ) ;
#40 = DIRECTION ( 'NONE',  ( 0.0000000000000000000, 0.0000000000000000000, 1.000000000000000000 ) ) ;
#41 = ADVANCED_FACE ( 'NONE', ( #241 ), #234, .T. ) ;
#42 = CARTESIAN_POINT ( 'NONE',  ( -0.8160621761658039000, 3.061616997868383100E-016, -2.500000000000000000 ) ) ;
#43 = CIRCLE ( 'NONE', #326, 2.499999999999997800 ) ;
#44 = CIRCLE ( 'NONE', #293, 2.500000000000000000 ) ;
#45 = DIRECTION ( 'NONE',  ( 0.0000000000000000000, 0.0000000000000000000, 1.000000000000000000 ) ) ;
#46 = ORIENTED_EDGE ( 'NONE', *, *, #281, .T. ) ;
#47 = AXIS2_PLACEMENT_3D ( 'NONE', #175, #276, #177 ) ;
#48 = DIRECTION ( 'NONE',  ( 0.0000000000000000000, 1.000000000000000000, 0.0000000000000000000 ) ) ;
#49 = PRODUCT ( '145005', '145005', '', ( #134 ) ) ;
#50 = SURFACE_STYLE_FILL_AREA ( #229 ) ;
#51 = ORIENTED_EDGE ( 'NONE', *, *, #80, .T. ) ;
#52 = ORIENTED_EDGE ( 'NONE', *, *, #93, .F. ) ;
#53 = AXIS2_PLACEMENT_3D ( 'NONE', #60, #123, #66 ) ;
#54 = FACE_OUTER_BOUND ( 'NONE', #63, .T. ) ;
#55 = APPLICATION_CONTEXT ( 'automotive_design' ) ;
#56 = ORIENTED_EDGE ( 'NONE', *, *, #73, .F. ) ;
#57 = SPHERICAL_SURFACE ( 'NONE', #295, 12.49999999999999600 ) ;
#58 = ORIENTED_EDGE ( 'NONE', *, *, #296, .T. ) ;
#59 = ORIENTED_EDGE ( 'NONE', *, *, #297, .F. ) ;
#60 = CARTESIAN_POINT ( 'NONE',  ( -0.6049572944801680000, 0.0000000000000000000, -4.792349241195840000E-017 ) ) ;
#61 = CIRCLE ( 'NONE', #1, 2.499999999999997800 ) ;
#62 = MANIFOLD_SOLID_BREP ( 'Ðý×ª1', #182 ) ;
#63 = EDGE_LOOP ( 'NONE', ( #161, #158, #38, #324 ) ) ;
#64 = CARTESIAN_POINT ( 'NONE',  ( -0.6049572944801680000, 0.0000000000000000000, -4.792349241195840000E-017 ) ) ;
#65 = CARTESIAN_POINT ( 'NONE',  ( -0.6049572944801680000, 0.0000000000000000000, -4.792349241195840000E-017 ) ) ;
#66 = DIRECTION ( 'NONE',  ( 0.0000000000000000000, 0.0000000000000000000, 1.000000000000000000 ) ) ;
#67 = EDGE_CURVE ( 'NONE', #273, #299, #15, .T. ) ;
#68 = ORIENTED_EDGE ( 'NONE', *, *, #20, .F. ) ;
#69 = ORIENTED_EDGE ( 'NONE', *, *, #217, .F. ) ;
#70 = CARTESIAN_POINT ( 'NONE',  ( -0.5519199926577972300, 0.0000000000000000000, 0.0000000000000000000 ) ) ;
#71 = ADVANCED_FACE ( 'NONE', ( #213 ), #149, .T. ) ;
#72 = CARTESIAN_POINT ( 'NONE',  ( -0.8160621761658039000, 0.0000000000000000000, 0.0000000000000000000 ) ) ;
#73 = EDGE_CURVE ( 'NONE', #113, #5, #78, .T. ) ;
#74 = FACE_OUTER_BOUND ( 'NONE', #210, .T. ) ;
#75 =( NAMED_UNIT ( * ) SI_UNIT ( $, .STERADIAN. ) SOLID_ANGLE_UNIT ( ) );
#76 = CARTESIAN_POINT ( 'NONE',  ( 2.247593991603941400, 0.0000000000000000000, 0.0000000000000000000 ) ) ;
#77 = SPHERICAL_SURFACE ( 'NONE', #233, 5.299999999999999800 ) ;
#78 = CIRCLE ( 'NONE', #47, 12.49999999999999600 ) ;
#79 = AXIS2_PLACEMENT_3D ( 'NONE', #64, #343, #282 ) ;
#80 = EDGE_CURVE ( 'NONE', #89, #271, #10, .T. ) ;
#81 = CIRCLE ( 'NONE', #7, 2.500000000000000000 ) ;
#82 = LINE ( 'NONE', #231, #23 ) ;
#83 = APPLICATION_PROTOCOL_DEFINITION ( 'draft international standard', 'automotive_design', 1998, #55 ) ;
#84 = COLOUR_RGB ( '',1.000000000000000000, 1.000000000000000000, 1.000000000000000000 ) ;
#85 = AXIS2_PLACEMENT_3D ( 'NONE', #136, #286, #6 ) ;
#86 = DIRECTION ( 'NONE',  ( -1.000000000000000000, -0.0000000000000000000, -0.0000000000000000000 ) ) ;
#87 = SURFACE_SIDE_STYLE ('',( #211 ) ) ;
#88 = EDGE_CURVE ( 'NONE', #28, #266, #81, .T. ) ;
#89 = VERTEX_POINT ( 'NONE', #21 ) ;
#90 = CARTESIAN_POINT ( 'NONE',  ( 4.068371283739002000, 3.061616997868383100E-016, -2.500000000000000000 ) ) ;
#91 = ADVANCED_FACE ( 'NONE', ( #74 ), #345, .T. ) ;
#92 = DIRECTION ( 'NONE',  ( 0.0000000000000000000, 0.0000000000000000000, 1.000000000000000000 ) ) ;
#93 = EDGE_CURVE ( 'NONE', #299, #89, #61, .T. ) ;
#94 = ORIENTED_EDGE ( 'NONE', *, *, #129, .T. ) ;
#95 = CARTESIAN_POINT ( 'NONE',  ( 1.995042705519834300, 0.0000000000000000000, 7.531859061228876500E-016 ) ) ;
#96 = DIRECTION ( 'NONE',  ( 0.0000000000000000000, -1.000000000000000000, 0.0000000000000000000 ) ) ;
#97 = LINE ( 'NONE', #42, #253 ) ;
#98 = CARTESIAN_POINT ( 'NONE',  ( -0.6049572944801680000, 0.0000000000000000000, -4.792349241195840000E-017 ) ) ;
#99 = ORIENTED_EDGE ( 'NONE', *, *, #148, .F. ) ;
#100 = DIRECTION ( 'NONE',  ( -1.000000000000000000, -0.0000000000000000000, -0.0000000000000000000 ) ) ;
#101 = AXIS2_PLACEMENT_3D ( 'NONE', #39, #192, #335 ) ;
#102 = COLOUR_RGB ( '',1.000000000000000000, 1.000000000000000000, 1.000000000000000000 ) ;
#103 = CIRCLE ( 'NONE', #265, 2.500000000000000000 ) ;
#104 = FACE_OUTER_BOUND ( 'NONE', #2, .T. ) ;
#105 = ORIENTED_EDGE ( 'NONE', *, *, #218, .F. ) ;
#106 = CIRCLE ( 'NONE', #212, 2.499999999999998700 ) ;
#107 = SPHERICAL_SURFACE ( 'NONE', #178, 12.10000000000000000 ) ;
#108 = DIRECTION ( 'NONE',  ( 0.0000000000000000000, 1.000000000000000000, 0.0000000000000000000 ) ) ;
#109 = DIRECTION ( 'NONE',  ( 1.000000000000000000, 0.0000000000000000000, 0.0000000000000000000 ) ) ;
#110 = AXIS2_PLACEMENT_3D ( 'NONE', #70, #19, #45 ) ;
#111 = DIRECTION ( 'NONE',  ( -1.000000000000000000, -0.0000000000000000000, -0.0000000000000000000 ) ) ;
#112 = DIRECTION ( 'NONE',  ( 0.0000000000000000000, 1.000000000000000000, 0.0000000000000000000 ) ) ;
#113 = VERTEX_POINT ( 'NONE', #267 ) ;
#114 = ORIENTED_EDGE ( 'NONE', *, *, #73, .T. ) ;
#115 = CARTESIAN_POINT ( 'NONE',  ( -5.304957294480167300, 0.0000000000000000000, 0.0000000000000000000 ) ) ;
#116 = DIRECTION ( 'NONE',  ( 0.0000000000000000000, 0.0000000000000000000, 1.000000000000000000 ) ) ;
#117 = SPHERICAL_SURFACE ( 'NONE', #157, 12.49999999999999600 ) ;
#118 = STYLED_ITEM ( 'NONE', ( #336 ), #274 ) ;
#119 = ADVANCED_FACE ( 'NONE', ( #247 ), #294, .T. ) ;
#120 = ORIENTED_EDGE ( 'NONE', *, *, #67, .F. ) ;
#121 = SURFACE_STYLE_USAGE ( .BOTH. , #215 ) ;
#122 = EDGE_LOOP ( 'NONE', ( #248, #318, #114 ) ) ;
#123 = DIRECTION ( 'NONE',  ( 0.0000000000000000000, 1.000000000000000000, 0.0000000000000000000 ) ) ;
#124 = DIRECTION ( 'NONE',  ( 0.0000000000000000000, 0.0000000000000000000, 1.000000000000000000 ) ) ;
#125 = CARTESIAN_POINT ( 'NONE',  ( 4.068371283739000300, 0.0000000000000000000, 2.499999999999999600 ) ) ;
#126 = CARTESIAN_POINT ( 'NONE',  ( -0.5519199926577972300, 0.0000000000000000000, 2.499999999999998200 ) ) ;
#127 = SPHERICAL_SURFACE ( 'NONE', #53, 5.299999999999999800 ) ;
#128 = EDGE_LOOP ( 'NONE', ( #120, #191, #52 ) ) ;
#129 = EDGE_CURVE ( 'NONE', #232, #3, #270, .T. ) ;
#130 = DIRECTION ( 'NONE',  ( 0.0000000000000000000, 0.0000000000000000000, 1.000000000000000000 ) ) ;
#131 = DIRECTION ( 'NONE',  ( -1.000000000000000000, -0.0000000000000000000, -0.0000000000000000000 ) ) ;
#132 = AXIS2_PLACEMENT_3D ( 'NONE', #26, #228, #309 ) ;
#133 = DIRECTION ( 'NONE',  ( 0.0000000000000000000, 0.0000000000000000000, 1.000000000000000000 ) ) ;
#134 = PRODUCT_CONTEXT ( 'NONE', #55, 'mechanical' ) ;
#135 = ORIENTED_EDGE ( 'NONE', *, *, #256, .T. ) ;
#136 = CARTESIAN_POINT ( 'NONE',  ( -0.6049572944801680000, 0.0000000000000000000, -4.792349241195840000E-017 ) ) ;
#137 = AXIS2_PLACEMENT_3D ( 'NONE', #283, #205, #116 ) ;
#138 = UNCERTAINTY_MEASURE_WITH_UNIT (LENGTH_MEASURE( 1.000000000000000100E-005 ), #4, 'distance_accuracy_value', 'NONE');
#139 = EDGE_LOOP ( 'NONE', ( #59, #254, #51, #331 ) ) ;
#140 = EDGE_LOOP ( 'NONE', ( #284, #222, #185 ) ) ;
#141 = AXIS2_PLACEMENT_3D ( 'NONE', #144, #40, #109 ) ;
#142 =( LENGTH_UNIT ( ) NAMED_UNIT ( * ) SI_UNIT ( .MILLI., .METRE. ) );
#143 = SHAPE_DEFINITION_REPRESENTATION ( #275, #274 ) ;
#144 = CARTESIAN_POINT ( 'NONE',  ( 0.0000000000000000000, 0.0000000000000000000, 0.0000000000000000000 ) ) ;
#145 = VECTOR ( 'NONE', #131, 1000.000000000000000 ) ;
#146 = CARTESIAN_POINT ( 'NONE',  ( 4.695042705519831800, 0.0000000000000000000, 2.766079093620902000E-016 ) ) ;
#147 = CARTESIAN_POINT ( 'NONE',  ( -0.6049572944801680000, 0.0000000000000000000, -4.792349241195840000E-017 ) ) ;
#148 = EDGE_CURVE ( 'NONE', #273, #89, #203, .T. ) ;
#149 = CYLINDRICAL_SURFACE ( 'NONE', #137, 2.499999999999998200 ) ;
#150 = ADVANCED_FACE ( 'NONE', ( #190 ), #127, .F. ) ;
#151 = DIRECTION ( 'NONE',  ( 0.0000000000000000000, 0.0000000000000000000, 1.000000000000000000 ) ) ;
#152 = CARTESIAN_POINT ( 'NONE',  ( 4.068371283739002000, 0.0000000000000000000, 0.0000000000000000000 ) ) ;
#153 =( GEOMETRIC_REPRESENTATION_CONTEXT ( 3 ) GLOBAL_UNCERTAINTY_ASSIGNED_CONTEXT ( ( #138 ) ) GLOBAL_UNIT_ASSIGNED_CONTEXT ( ( #4, #300, #75 ) ) REPRESENTATION_CONTEXT ( 'NONE', 'WORKASPACE' ) );
#154 = FILL_AREA_STYLE ('',( #302 ) ) ;
#155 = CLOSED_SHELL ( 'NONE', ( #195, #91, #311, #150, #71, #18 ) ) ;
#156 =( GEOMETRIC_REPRESENTATION_CONTEXT ( 3 ) GLOBAL_UNCERTAINTY_ASSIGNED_CONTEXT ( ( #27 ) ) GLOBAL_UNIT_ASSIGNED_CONTEXT ( ( #200, #303, #308 ) ) REPRESENTATION_CONTEXT ( 'NONE', 'WORKASPACE' ) );
#157 = AXIS2_PLACEMENT_3D ( 'NONE', #220, #36, #341 ) ;
#158 = ORIENTED_EDGE ( 'NONE', *, *, #24, .T. ) ;
#159 =( LENGTH_UNIT ( ) NAMED_UNIT ( * ) SI_UNIT ( .MILLI., .METRE. ) );
#160 = SURFACE_SIDE_STYLE ('',( #313 ) ) ;
#161 = ORIENTED_EDGE ( 'NONE', *, *, #236, .F. ) ;
#162 = PRODUCT_DEFINITION ( 'Î´Öª', '', #167, #257 ) ;
#163 = CARTESIAN_POINT ( 'NONE',  ( -5.304957294480167300, 0.0000000000000000000, 0.0000000000000000000 ) ) ;
#164 = CARTESIAN_POINT ( 'NONE',  ( 4.068371283739000300, 0.0000000000000000000, 0.0000000000000000000 ) ) ;
#165 = ORIENTED_EDGE ( 'NONE', *, *, #25, .T. ) ;
#166 = CARTESIAN_POINT ( 'NONE',  ( 14.49504270551983100, 0.0000000000000000000, -1.221834334420798000E-017 ) ) ;
#167 = PRODUCT_DEFINITION_FORMATION_WITH_SPECIFIED_SOURCE ( 'ÈÎºÎ', '', #49, .NOT_KNOWN. ) ;
#168 = VECTOR ( 'NONE', #246, 1000.000000000000000 ) ;
#169 = ADVANCED_FACE ( 'NONE', ( #330 ), #57, .T. ) ;
#170 = CIRCLE ( 'NONE', #272, 12.49999999999999600 ) ;
#171 = DIRECTION ( 'NONE',  ( 0.0000000000000000000, -1.000000000000000000, 0.0000000000000000000 ) ) ;
#172 = CARTESIAN_POINT ( 'NONE',  ( 4.695042705519831800, 0.0000000000000000000, 2.766079093620902000E-016 ) ) ;
#173 = EDGE_CURVE ( 'NONE', #207, #113, #262, .T. ) ;
#174 = DIRECTION ( 'NONE',  ( 0.0000000000000000000, 0.0000000000000000000, 1.000000000000000000 ) ) ;
#175 = CARTESIAN_POINT ( 'NONE',  ( 14.49504270551983100, 0.0000000000000000000, -1.221834334420798000E-017 ) ) ;
#176 = ORIENTED_EDGE ( 'NONE', *, *, #129, .F. ) ;
#177 = DIRECTION ( 'NONE',  ( 0.0000000000000000000, 0.0000000000000000000, -1.000000000000000000 ) ) ;
#178 = AXIS2_PLACEMENT_3D ( 'NONE', #163, #243, #245 ) ;
#179 = FILL_AREA_STYLE ('',( #226 ) ) ;
#180 = CIRCLE ( 'NONE', #85, 5.299999999999999800 ) ;
#181 = ORIENTED_EDGE ( 'NONE', *, *, #67, .T. ) ;
#182 = CLOSED_SHELL ( 'NONE', ( #119, #338, #169, #224, #252, #41 ) ) ;
#183 = PRESENTATION_LAYER_ASSIGNMENT (  '', '', ( #307 ) ) ;
#184 = SPHERICAL_SURFACE ( 'NONE', #340, 12.10000000000000000 ) ;
#185 = ORIENTED_EDGE ( 'NONE', *, *, #88, .F. ) ;
#186 = CIRCLE ( 'NONE', #132, 2.499999999999998700 ) ;
#187 = DIRECTION ( 'NONE',  ( 0.0000000000000000000, 0.0000000000000000000, 1.000000000000000000 ) ) ;
#188 = ORIENTED_EDGE ( 'NONE', *, *, #297, .T. ) ;
#189 = CARTESIAN_POINT ( 'NONE',  ( 2.247593991603941400, 0.0000000000000000000, 0.0000000000000000000 ) ) ;
#190 = FACE_OUTER_BOUND ( 'NONE', #288, .T. ) ;
#191 = ORIENTED_EDGE ( 'NONE', *, *, #148, .T. ) ;
#192 = DIRECTION ( 'NONE',  ( -0.0000000000000000000, 1.000000000000000000, 1.224646799147353200E-016 ) ) ;
#193 = COLOUR_RGB ( '',1.000000000000000000, 1.000000000000000000, 1.000000000000000000 ) ;
#194 = EDGE_LOOP ( 'NONE', ( #204, #165, #56 ) ) ;
#195 = ADVANCED_FACE ( 'NONE', ( #104 ), #184, .T. ) ;
#196 = DIRECTION ( 'NONE',  ( 0.0000000000000000000, 0.0000000000000000000, 1.000000000000000000 ) ) ;
#197 = DIRECTION ( 'NONE',  ( 0.0000000000000000000, 0.0000000000000000000, 1.000000000000000000 ) ) ;
#198 = MECHANICAL_DESIGN_GEOMETRIC_PRESENTATION_REPRESENTATION (  '', ( #307 ), #237 ) ;
#199 = CARTESIAN_POINT ( 'NONE',  ( -0.6049572944801680000, 0.0000000000000000000, -4.792349241195840000E-017 ) ) ;
#200 =( LENGTH_UNIT ( ) NAMED_UNIT ( * ) SI_UNIT ( .MILLI., .METRE. ) );
#201 = DIRECTION ( 'NONE',  ( 0.0000000000000000000, 0.0000000000000000000, 1.000000000000000000 ) ) ;
#202 = CYLINDRICAL_SURFACE ( 'NONE', #269, 2.500000000000000000 ) ;
#203 = CIRCLE ( 'NONE', #319, 12.10000000000000000 ) ;
#204 = ORIENTED_EDGE ( 'NONE', *, *, #20, .T. ) ;
#205 = DIRECTION ( 'NONE',  ( -1.000000000000000000, -0.0000000000000000000, -0.0000000000000000000 ) ) ;
#206 = PRESENTATION_STYLE_ASSIGNMENT (( #261 ) ) ;
#207 = VERTEX_POINT ( 'NONE', #227 ) ;
#208 = PRODUCT_RELATED_PRODUCT_CATEGORY ( 'part', '', ( #49 ) ) ;
#209 = DIRECTION ( 'NONE',  ( -1.000000000000000000, -0.0000000000000000000, -0.0000000000000000000 ) ) ;
#210 = EDGE_LOOP ( 'NONE', ( #305, #188, #315, #337 ) ) ;
#211 = SURFACE_STYLE_FILL_AREA ( #179 ) ;
#212 = AXIS2_PLACEMENT_3D ( 'NONE', #164, #31, #124 ) ;
#213 = FACE_OUTER_BOUND ( 'NONE', #139, .T. ) ;
#214 =( NAMED_UNIT ( * ) SI_UNIT ( $, .STERADIAN. ) SOLID_ANGLE_UNIT ( ) );
#215 = SURFACE_SIDE_STYLE ('',( #50 ) ) ;
#216 = DIRECTION ( 'NONE',  ( -0.0000000000000000000, 1.000000000000000000, 1.224646799147353200E-016 ) ) ;
#217 = EDGE_CURVE ( 'NONE', #28, #113, #82, .T. ) ;
#218 = EDGE_CURVE ( 'NONE', #325, #266, #298, .T. ) ;
#219 = CARTESIAN_POINT ( 'NONE',  ( -5.304957294480167300, 0.0000000000000000000, 0.0000000000000000000 ) ) ;
#220 = CARTESIAN_POINT ( 'NONE',  ( 14.49504270551983100, 0.0000000000000000000, -1.221834334420798000E-017 ) ) ;
#221 = AXIS2_PLACEMENT_3D ( 'NONE', #72, #100, #285 ) ;
#222 = ORIENTED_EDGE ( 'NONE', *, *, #218, .T. ) ;
#223 = DIRECTION ( 'NONE',  ( -0.0000000000000000000, 1.000000000000000000, 1.224646799147353200E-016 ) ) ;
#224 = ADVANCED_FACE ( 'NONE', ( #14 ), #117, .T. ) ;
#225 = AXIS2_PLACEMENT_3D ( 'NONE', #76, #86, #174 ) ;
#226 = FILL_AREA_STYLE_COLOUR ( '', #193 ) ;
#227 = CARTESIAN_POINT ( 'NONE',  ( 2.247593991603941800, 3.061616997868378700E-016, -2.499999999999996000 ) ) ;
#228 = DIRECTION ( 'NONE',  ( -1.000000000000000000, -0.0000000000000000000, -0.0000000000000000000 ) ) ;
#229 = FILL_AREA_STYLE ('',( #321 ) ) ;
#230 = CARTESIAN_POINT ( 'NONE',  ( -0.6049572944801680000, 0.0000000000000000000, -4.792349241195840000E-017 ) ) ;
#231 = CARTESIAN_POINT ( 'NONE',  ( -0.8160621761658039000, 0.0000000000000000000, 2.500000000000000000 ) ) ;
#232 = VERTEX_POINT ( 'NONE', #172 ) ;
#233 = AXIS2_PLACEMENT_3D ( 'NONE', #230, #34, #151 ) ;
#234 = SPHERICAL_SURFACE ( 'NONE', #37, 5.299999999999999800 ) ;
#235 = ORIENTED_EDGE ( 'NONE', *, *, #88, .T. ) ;
#236 = EDGE_CURVE ( 'NONE', #266, #207, #97, .T. ) ;
#237 =( GEOMETRIC_REPRESENTATION_CONTEXT ( 3 ) GLOBAL_UNCERTAINTY_ASSIGNED_CONTEXT ( ( #292 ) ) GLOBAL_UNIT_ASSIGNED_CONTEXT ( ( #142, #306, #16 ) ) REPRESENTATION_CONTEXT ( 'NONE', 'WORKASPACE' ) );
#238 = ORIENTED_EDGE ( 'NONE', *, *, #289, .T. ) ;
#239 = LINE ( 'NONE', #346, #168 ) ;
#240 = PRESENTATION_LAYER_ASSIGNMENT (  '', '', ( #118 ) ) ;
#241 = FACE_OUTER_BOUND ( 'NONE', #279, .T. ) ;
#242 = DIRECTION ( 'NONE',  ( -1.000000000000000000, -0.0000000000000000000, -0.0000000000000000000 ) ) ;
#243 = DIRECTION ( 'NONE',  ( 0.0000000000000000000, 1.000000000000000000, 0.0000000000000000000 ) ) ;
#244 = CARTESIAN_POINT ( 'NONE',  ( 6.795042705519832400, 0.0000000000000000000, 7.409113134841486500E-016 ) ) ;
#245 = DIRECTION ( 'NONE',  ( 0.0000000000000000000, 0.0000000000000000000, 1.000000000000000000 ) ) ;
#246 = DIRECTION ( 'NONE',  ( -1.000000000000000000, -0.0000000000000000000, -0.0000000000000000000 ) ) ;
#247 = FACE_OUTER_BOUND ( 'NONE', #140, .T. ) ;
#248 = ORIENTED_EDGE ( 'NONE', *, *, #25, .F. ) ;
#249 = DIRECTION ( 'NONE',  ( -1.000000000000000000, -0.0000000000000000000, -0.0000000000000000000 ) ) ;
#250 = CARTESIAN_POINT ( 'NONE',  ( 4.068371283739000300, 3.061616997868382600E-016, -2.499999999999999600 ) ) ;
#251 = AXIS2_PLACEMENT_3D ( 'NONE', #147, #223, #304 ) ;
#252 = ADVANCED_FACE ( 'NONE', ( #54 ), #312, .T. ) ;
#253 = VECTOR ( 'NONE', #249, 1000.000000000000000 ) ;
#254 = ORIENTED_EDGE ( 'NONE', *, *, #93, .T. ) ;
#255 = ORIENTED_EDGE ( 'NONE', *, *, #236, .T. ) ;
#256 = EDGE_CURVE ( 'NONE', #325, #28, #180, .T. ) ;
#257 = PRODUCT_DEFINITION_CONTEXT ( 'detailed design', #323, 'design' ) ;
#258 = CARTESIAN_POINT ( 'NONE',  ( 4.068371283739002000, 0.0000000000000000000, 2.500000000000000000 ) ) ;
#259 = PRESENTATION_LAYER_ASSIGNMENT (  '', '', ( #317 ) ) ;
#260 = EDGE_CURVE ( 'NONE', #89, #299, #43, .T. ) ;
#261 = SURFACE_STYLE_USAGE ( .BOTH. , #87 ) ;
#262 = CIRCLE ( 'NONE', #225, 2.500000000000000000 ) ;
#263 = CARTESIAN_POINT ( 'NONE',  ( 6.533961575078826000, 0.0000000000000000000, 0.0000000000000000000 ) ) ;
#264 = DIRECTION ( 'NONE',  ( 0.0000000000000000000, 0.0000000000000000000, 1.000000000000000000 ) ) ;
#265 = AXIS2_PLACEMENT_3D ( 'NONE', #189, #242, #310 ) ;
#266 = VERTEX_POINT ( 'NONE', #90 ) ;
#267 = CARTESIAN_POINT ( 'NONE',  ( 2.247593991603941800, 0.0000000000000000000, 2.499999999999996000 ) ) ;
#268 = EDGE_LOOP ( 'NONE', ( #235, #255, #68, #69 ) ) ;
#269 = AXIS2_PLACEMENT_3D ( 'NONE', #347, #329, #12 ) ;
#270 = CIRCLE ( 'NONE', #251, 5.299999999999999800 ) ;
#271 = VERTEX_POINT ( 'NONE', #125 ) ;
#272 = AXIS2_PLACEMENT_3D ( 'NONE', #166, #216, #33 ) ;
#273 = VERTEX_POINT ( 'NONE', #244 ) ;
#274 = ADVANCED_BREP_SHAPE_REPRESENTATION ( '145005', ( #62, #322, #141 ), #153 ) ;
#275 = PRODUCT_DEFINITION_SHAPE ( 'NONE', 'NONE',  #162 ) ;
#276 = DIRECTION ( 'NONE',  ( 0.0000000000000000000, -1.000000000000000000, 0.0000000000000000000 ) ) ;
#277 = MECHANICAL_DESIGN_GEOMETRIC_PRESENTATION_REPRESENTATION (  '', ( #317 ), #301 ) ;
#278 = DIRECTION ( 'NONE',  ( -1.000000000000000000, -0.0000000000000000000, -0.0000000000000000000 ) ) ;
#279 = EDGE_LOOP ( 'NONE', ( #105, #135, #339 ) ) ;
#280 = CARTESIAN_POINT ( 'NONE',  ( 4.068371283739002000, 0.0000000000000000000, 0.0000000000000000000 ) ) ;
#281 = EDGE_CURVE ( 'NONE', #232, #271, #344, .T. ) ;
#282 = DIRECTION ( 'NONE',  ( 0.0000000000000000000, -1.224646799147353200E-016, 1.000000000000000000 ) ) ;
#283 = CARTESIAN_POINT ( 'NONE',  ( -0.5519199926577972300, 0.0000000000000000000, 0.0000000000000000000 ) ) ;
#284 = ORIENTED_EDGE ( 'NONE', *, *, #256, .F. ) ;
#285 = DIRECTION ( 'NONE',  ( 0.0000000000000000000, 0.0000000000000000000, 1.000000000000000000 ) ) ;
#286 = DIRECTION ( 'NONE',  ( 0.0000000000000000000, -1.000000000000000000, 0.0000000000000000000 ) ) ;
#287 = DIRECTION ( 'NONE',  ( 0.0000000000000000000, 0.0000000000000000000, -1.000000000000000000 ) ) ;
#288 = EDGE_LOOP ( 'NONE', ( #176, #46, #58 ) ) ;
#289 = EDGE_CURVE ( 'NONE', #3, #271, #186, .T. ) ;
#290 = CARTESIAN_POINT ( 'NONE',  ( 6.533961575078826000, 0.0000000000000000000, 0.0000000000000000000 ) ) ;
#291 = DIRECTION ( 'NONE',  ( 0.0000000000000000000, 1.000000000000000000, 0.0000000000000000000 ) ) ;
#292 = UNCERTAINTY_MEASURE_WITH_UNIT (LENGTH_MEASURE( 1.000000000000000100E-005 ), #142, 'distance_accuracy_value', 'NONE');
#293 = AXIS2_PLACEMENT_3D ( 'NONE', #280, #332, #197 ) ;
#294 = SPHERICAL_SURFACE ( 'NONE', #29, 5.299999999999999800 ) ;
#295 = AXIS2_PLACEMENT_3D ( 'NONE', #314, #112, #130 ) ;
#296 = EDGE_CURVE ( 'NONE', #271, #3, #106, .T. ) ;
#297 = EDGE_CURVE ( 'NONE', #299, #3, #239, .T. ) ;
#298 = CIRCLE ( 'NONE', #79, 5.299999999999999800 ) ;
#299 = VERTEX_POINT ( 'NONE', #30 ) ;
#300 =( NAMED_UNIT ( * ) PLANE_ANGLE_UNIT ( ) SI_UNIT ( $, .RADIAN. ) );
#301 =( GEOMETRIC_REPRESENTATION_CONTEXT ( 3 ) GLOBAL_UNCERTAINTY_ASSIGNED_CONTEXT ( ( #342 ) ) GLOBAL_UNIT_ASSIGNED_CONTEXT ( ( #159, #35, #214 ) ) REPRESENTATION_CONTEXT ( 'NONE', 'WORKASPACE' ) );
#302 = FILL_AREA_STYLE_COLOUR ( '', #84 ) ;
#303 =( NAMED_UNIT ( * ) PLANE_ANGLE_UNIT ( ) SI_UNIT ( $, .RADIAN. ) );
#304 = DIRECTION ( 'NONE',  ( 0.0000000000000000000, -1.224646799147353200E-016, 1.000000000000000000 ) ) ;
#305 = ORIENTED_EDGE ( 'NONE', *, *, #260, .T. ) ;
#306 =( NAMED_UNIT ( * ) PLANE_ANGLE_UNIT ( ) SI_UNIT ( $, .RADIAN. ) );
#307 = STYLED_ITEM ( 'NONE', ( #32 ), #62 ) ;
#308 =( NAMED_UNIT ( * ) SI_UNIT ( $, .STERADIAN. ) SOLID_ANGLE_UNIT ( ) );
#309 = DIRECTION ( 'NONE',  ( 0.0000000000000000000, 0.0000000000000000000, 1.000000000000000000 ) ) ;
#310 = DIRECTION ( 'NONE',  ( 0.0000000000000000000, 0.0000000000000000000, 1.000000000000000000 ) ) ;
#311 = ADVANCED_FACE ( 'NONE', ( #327 ), #77, .F. ) ;
#312 = CYLINDRICAL_SURFACE ( 'NONE', #221, 2.500000000000000000 ) ;
#313 = SURFACE_STYLE_FILL_AREA ( #154 ) ;
#314 = CARTESIAN_POINT ( 'NONE',  ( 14.49504270551983100, 0.0000000000000000000, -1.221834334420798000E-017 ) ) ;
#315 = ORIENTED_EDGE ( 'NONE', *, *, #296, .F. ) ;
#316 = FACE_OUTER_BOUND ( 'NONE', #268, .T. ) ;
#317 = STYLED_ITEM ( 'NONE', ( #206 ), #322 ) ;
#318 = ORIENTED_EDGE ( 'NONE', *, *, #173, .T. ) ;
#319 = AXIS2_PLACEMENT_3D ( 'NONE', #115, #96, #287 ) ;
#320 = FACE_OUTER_BOUND ( 'NONE', #128, .T. ) ;
#321 = FILL_AREA_STYLE_COLOUR ( '', #102 ) ;
#322 = MANIFOLD_SOLID_BREP ( 'Ðý×ª3', #155 ) ;
#323 = APPLICATION_CONTEXT ( 'automotive_design' ) ;
#324 = ORIENTED_EDGE ( 'NONE', *, *, #173, .F. ) ;
#325 = VERTEX_POINT ( 'NONE', #146 ) ;
#326 = AXIS2_PLACEMENT_3D ( 'NONE', #263, #209, #187 ) ;
#327 = FACE_OUTER_BOUND ( 'NONE', #22, .T. ) ;
#328 = ORIENTED_EDGE ( 'NONE', *, *, #260, .F. ) ;
#329 = DIRECTION ( 'NONE',  ( -1.000000000000000000, -0.0000000000000000000, -0.0000000000000000000 ) ) ;
#330 = FACE_OUTER_BOUND ( 'NONE', #194, .T. ) ;
#331 = ORIENTED_EDGE ( 'NONE', *, *, #289, .F. ) ;
#332 = DIRECTION ( 'NONE',  ( -1.000000000000000000, -0.0000000000000000000, -0.0000000000000000000 ) ) ;
#333 = AXIS2_PLACEMENT_3D ( 'NONE', #199, #171, #11 ) ;
#334 = APPLICATION_PROTOCOL_DEFINITION ( 'draft international standard', 'automotive_design', 1998, #323 ) ;
#335 = DIRECTION ( 'NONE',  ( 0.0000000000000000000, -1.224646799147353200E-016, 1.000000000000000000 ) ) ;
#336 = PRESENTATION_STYLE_ASSIGNMENT (( #121 ) ) ;
#337 = ORIENTED_EDGE ( 'NONE', *, *, #80, .F. ) ;
#338 = ADVANCED_FACE ( 'NONE', ( #316 ), #202, .T. ) ;
#339 = ORIENTED_EDGE ( 'NONE', *, *, #24, .F. ) ;
#340 = AXIS2_PLACEMENT_3D ( 'NONE', #219, #48, #196 ) ;
#341 = DIRECTION ( 'NONE',  ( 0.0000000000000000000, 0.0000000000000000000, 1.000000000000000000 ) ) ;
#342 = UNCERTAINTY_MEASURE_WITH_UNIT (LENGTH_MEASURE( 1.000000000000000100E-005 ), #159, 'distance_accuracy_value', 'NONE');
#343 = DIRECTION ( 'NONE',  ( -0.0000000000000000000, 1.000000000000000000, 1.224646799147353200E-016 ) ) ;
#344 = CIRCLE ( 'NONE', #333, 5.299999999999999800 ) ;
#345 = CYLINDRICAL_SURFACE ( 'NONE', #110, 2.499999999999998200 ) ;
#346 = CARTESIAN_POINT ( 'NONE',  ( -0.5519199926577972300, 3.061616997868381200E-016, -2.499999999999998200 ) ) ;
#347 = CARTESIAN_POINT ( 'NONE',  ( -0.8160621761658039000, 0.0000000000000000000, 0.0000000000000000000 ) ) ;
ENDSEC;
END-ISO-10303-21;
