ISO-10303-21;
HEADER;
FILE_DESCRIPTION (( 'STEP AP214' ),
    '1' );
FILE_NAME ('145015.STEP',
    '2019-05-08T06:58:54',
    ( 'user' ),
    ( 'Î¢ÈíÖÐ¹ú' ),
    'SwSTEP 2.0',
    'SolidWorks 2016',
    '' );
FILE_SCHEMA (( 'AUTOMOTIVE_DESIGN' ));
ENDSEC;

DATA;
#1 = ADVANCED_FACE ( 'NONE', ( #58 ), #276, .F. ) ;
#2 = EDGE_CURVE ( 'NONE', #331, #321, #272, .T. ) ;
#3 = CARTESIAN_POINT ( 'NONE',  ( -0.5519199926577972300, 4.898587196589409900E-016, -3.999999999999997300 ) ) ;
#4 = EDGE_LOOP ( 'NONE', ( #286, #22, #325 ) ) ;
#5 = CARTESIAN_POINT ( 'NONE',  ( -3.030021086127372900, -4.898587196589411800E-016, 3.999999999999999100 ) ) ;
#6 = PRODUCT_DEFINITION_FORMATION_WITH_SPECIFIED_SOURCE ( 'ÈÎºÎ', '', #266, .NOT_KNOWN. ) ;
#7 = ORIENTED_EDGE ( 'NONE', *, *, #233, .T. ) ;
#8 = CARTESIAN_POINT ( 'NONE',  ( -1.586949605559629300, 0.0000000000000000000, 4.000000000000000000 ) ) ;
#9 = MANIFOLD_SOLID_BREP ( 'Ðý×ª1', #278 ) ;
#10 = DIRECTION ( 'NONE',  ( 0.0000000000000000000, 0.0000000000000000000, 1.000000000000000000 ) ) ;
#11 = CARTESIAN_POINT ( 'NONE',  ( -0.5519199926577972300, 0.0000000000000000000, 3.999999999999997300 ) ) ;
#12 = SPHERICAL_SURFACE ( 'NONE', #103, 7.099999999999997900 ) ;
#13 = DIRECTION ( 'NONE',  ( 0.0000000000000000000, 0.0000000000000000000, 1.000000000000000000 ) ) ;
#14 = DIRECTION ( 'NONE',  ( -1.000000000000000000, -0.0000000000000000000, -0.0000000000000000000 ) ) ;
#15 = ORIENTED_EDGE ( 'NONE', *, *, #303, .T. ) ;
#16 = AXIS2_PLACEMENT_3D ( 'NONE', #234, #117, #176 ) ;
#17 = DIRECTION ( 'NONE',  ( 0.0000000000000000000, 0.0000000000000000000, -1.000000000000000000 ) ) ;
#18 = CARTESIAN_POINT ( 'NONE',  ( -9.702612178336682500, 4.898587196589412800E-016, -4.000000000000000000 ) ) ;
#19 = CARTESIAN_POINT ( 'NONE',  ( -1.586949605559631700, 4.898587196589409900E-016, -3.999999999999998200 ) ) ;
#20 = FILL_AREA_STYLE_COLOUR ( '', #218 ) ;
#21 = CIRCLE ( 'NONE', #70, 5.300000000000007800 ) ;
#22 = ORIENTED_EDGE ( 'NONE', *, *, #344, .T. ) ;
#23 = ORIENTED_EDGE ( 'NONE', *, *, #344, .F. ) ;
#24 = SPHERICAL_SURFACE ( 'NONE', #158, 5.300000000000007800 ) ;
#25 = UNCERTAINTY_MEASURE_WITH_UNIT (LENGTH_MEASURE( 1.000000000000000100E-005 ), #66, 'distance_accuracy_value', 'NONE');
#26 = CIRCLE ( 'NONE', #147, 4.000000000000000000 ) ;
#27 =( GEOMETRIC_REPRESENTATION_CONTEXT ( 3 ) GLOBAL_UNCERTAINTY_ASSIGNED_CONTEXT ( ( #213 ) ) GLOBAL_UNIT_ASSIGNED_CONTEXT ( ( #193, #191, #195 ) ) REPRESENTATION_CONTEXT ( 'NONE', 'WORKASPACE' ) );
#28 = DIRECTION ( 'NONE',  ( 0.0000000000000000000, 0.0000000000000000000, 1.000000000000000000 ) ) ;
#29 = DIRECTION ( 'NONE',  ( 0.0000000000000000000, 1.000000000000000000, 0.0000000000000000000 ) ) ;
#30 = ORIENTED_EDGE ( 'NONE', *, *, #282, .F. ) ;
#31 = AXIS2_PLACEMENT_3D ( 'NONE', #262, #231, #146 ) ;
#32 = CARTESIAN_POINT ( 'NONE',  ( 0.2359826642976195500, 0.0000000000000000000, 4.871617276468747500E-016 ) ) ;
#33 = CIRCLE ( 'NONE', #345, 5.300000000000007800 ) ;
#34 = ORIENTED_EDGE ( 'NONE', *, *, #282, .T. ) ;
#35 = SURFACE_SIDE_STYLE ('',( #116 ) ) ;
#36 = DIRECTION ( 'NONE',  ( 0.0000000000000000000, 0.0000000000000000000, 1.000000000000000000 ) ) ;
#37 = VECTOR ( 'NONE', #82, 1000.000000000000000 ) ;
#38 = FILL_AREA_STYLE ('',( #20 ) ) ;
#39 = CARTESIAN_POINT ( 'NONE',  ( -5.064017335702388300, 0.0000000000000000000, 1.626303258728256700E-016 ) ) ;
#40 = DIRECTION ( 'NONE',  ( 0.0000000000000000000, 0.0000000000000000000, -1.000000000000000000 ) ) ;
#41 = CARTESIAN_POINT ( 'NONE',  ( -5.064017335702388300, 0.0000000000000000000, 1.626303258728256700E-016 ) ) ;
#42 = DIRECTION ( 'NONE',  ( 0.0000000000000000000, -1.000000000000000000, 0.0000000000000000000 ) ) ;
#43 = CARTESIAN_POINT ( 'NONE',  ( -5.064017335702388300, 0.0000000000000000000, 1.626303258728256700E-016 ) ) ;
#44 = SURFACE_STYLE_USAGE ( .BOTH. , #35 ) ;
#45 = PRODUCT_RELATED_PRODUCT_CATEGORY ( 'part', '', ( #266 ) ) ;
#46 = ORIENTED_EDGE ( 'NONE', *, *, #297, .T. ) ;
#47 = CIRCLE ( 'NONE', #172, 5.300000000000007800 ) ;
#48 = AXIS2_PLACEMENT_3D ( 'NONE', #204, #305, #208 ) ;
#49 =( NAMED_UNIT ( * ) SI_UNIT ( $, .STERADIAN. ) SOLID_ANGLE_UNIT ( ) );
#50 = AXIS2_PLACEMENT_3D ( 'NONE', #98, #315, #13 ) ;
#51 = CIRCLE ( 'NONE', #31, 3.999999999999998200 ) ;
#52 = EDGE_LOOP ( 'NONE', ( #96, #7, #295 ) ) ;
#53 =( LENGTH_UNIT ( ) NAMED_UNIT ( * ) SI_UNIT ( .MILLI., .METRE. ) );
#54 = CYLINDRICAL_SURFACE ( 'NONE', #107, 4.000000000000000000 ) ;
#55 = ORIENTED_EDGE ( 'NONE', *, *, #78, .T. ) ;
#56 = DIRECTION ( 'NONE',  ( 0.0000000000000000000, 1.000000000000000000, 0.0000000000000000000 ) ) ;
#57 = ADVANCED_FACE ( 'NONE', ( #64 ), #224, .T. ) ;
#58 = FACE_OUTER_BOUND ( 'NONE', #255, .T. ) ;
#59 =( NAMED_UNIT ( * ) PLANE_ANGLE_UNIT ( ) SI_UNIT ( $, .RADIAN. ) );
#60 = CARTESIAN_POINT ( 'NONE',  ( -20.46401733570237600, 0.0000000000000000000, 0.0000000000000000000 ) ) ;
#61 = ORIENTED_EDGE ( 'NONE', *, *, #210, .T. ) ;
#62 = AXIS2_PLACEMENT_3D ( 'NONE', #326, #324, #83 ) ;
#63 = DIRECTION ( 'NONE',  ( 0.0000000000000000000, 1.000000000000000000, 0.0000000000000000000 ) ) ;
#64 = FACE_OUTER_BOUND ( 'NONE', #73, .T. ) ;
#65 = CARTESIAN_POINT ( 'NONE',  ( 1.880780716640811300, 0.0000000000000000000, 0.0000000000000000000 ) ) ;
#66 =( LENGTH_UNIT ( ) NAMED_UNIT ( * ) SI_UNIT ( .MILLI., .METRE. ) );
#67 = DIRECTION ( 'NONE',  ( 0.0000000000000000000, -1.224646799147353200E-016, 1.000000000000000000 ) ) ;
#68 = EDGE_CURVE ( 'NONE', #270, #292, #244, .T. ) ;
#69 = CARTESIAN_POINT ( 'NONE',  ( -1.586949605559629300, 0.0000000000000000000, 0.0000000000000000000 ) ) ;
#70 = AXIS2_PLACEMENT_3D ( 'NONE', #328, #300, #302 ) ;
#71 = DIRECTION ( 'NONE',  ( 0.0000000000000000000, 0.0000000000000000000, 1.000000000000000000 ) ) ;
#72 = DIRECTION ( 'NONE',  ( -0.0000000000000000000, -1.000000000000000000, -0.0000000000000000000 ) ) ;
#73 = EDGE_LOOP ( 'NONE', ( #188, #254, #171, #192 ) ) ;
#74 = CARTESIAN_POINT ( 'NONE',  ( 2.835982664297611600, 0.0000000000000000000, 1.626302604415467400E-016 ) ) ;
#75 = EDGE_LOOP ( 'NONE', ( #223, #173, #162 ) ) ;
#76 = STYLED_ITEM ( 'NONE', ( #335 ), #9 ) ;
#77 = CARTESIAN_POINT ( 'NONE',  ( 1.880780716640811300, 4.898587196589409900E-016, -3.999999999999996400 ) ) ;
#78 = EDGE_CURVE ( 'NONE', #292, #321, #152, .T. ) ;
#79 = CARTESIAN_POINT ( 'NONE',  ( 2.835982664297611600, 0.0000000000000000000, 1.626302604415467400E-016 ) ) ;
#80 = ORIENTED_EDGE ( 'NONE', *, *, #198, .T. ) ;
#81 = AXIS2_PLACEMENT_3D ( 'NONE', #206, #211, #216 ) ;
#82 = DIRECTION ( 'NONE',  ( -1.000000000000000000, -0.0000000000000000000, -0.0000000000000000000 ) ) ;
#83 = DIRECTION ( 'NONE',  ( 0.0000000000000000000, 0.0000000000000000000, 1.000000000000000000 ) ) ;
#84 = ORIENTED_EDGE ( 'NONE', *, *, #137, .F. ) ;
#85 = ADVANCED_FACE ( 'NONE', ( #201 ), #219, .T. ) ;
#86 = AXIS2_PLACEMENT_3D ( 'NONE', #187, #337, #157 ) ;
#87 = DIRECTION ( 'NONE',  ( -1.000000000000000000, -0.0000000000000000000, -0.0000000000000000000 ) ) ;
#88 = ORIENTED_EDGE ( 'NONE', *, *, #112, .T. ) ;
#89 = DIRECTION ( 'NONE',  ( 0.0000000000000000000, 0.0000000000000000000, -1.000000000000000000 ) ) ;
#90 = FILL_AREA_STYLE ('',( #229 ) ) ;
#91 = SPHERICAL_SURFACE ( 'NONE', #235, 22.69999999999999900 ) ;
#92 = CARTESIAN_POINT ( 'NONE',  ( 2.235982664297621300, 0.0000000000000000000, 1.389974117032245900E-015 ) ) ;
#93 = CARTESIAN_POINT ( 'NONE',  ( -9.702612178336682500, 0.0000000000000000000, 0.0000000000000000000 ) ) ;
#94 = CARTESIAN_POINT ( 'NONE',  ( -1.586949605559629300, 4.898587196589412800E-016, -4.000000000000000000 ) ) ;
#95 = VERTEX_POINT ( 'NONE', #127 ) ;
#96 = ORIENTED_EDGE ( 'NONE', *, *, #303, .F. ) ;
#97 = FILL_AREA_STYLE_COLOUR ( '', #110 ) ;
#98 = CARTESIAN_POINT ( 'NONE',  ( -5.064017335702388300, 0.0000000000000000000, 1.626303258728256700E-016 ) ) ;
#99 = DIRECTION ( 'NONE',  ( 0.0000000000000000000, -1.224646799147353200E-016, 1.000000000000000000 ) ) ;
#100 = DIRECTION ( 'NONE',  ( -0.0000000000000000000, 1.000000000000000000, 1.224646799147353200E-016 ) ) ;
#101 = EDGE_LOOP ( 'NONE', ( #126, #34, #168 ) ) ;
#102 = CIRCLE ( 'NONE', #131, 7.099999999999997900 ) ;
#103 = AXIS2_PLACEMENT_3D ( 'NONE', #74, #72, #89 ) ;
#104 = DIRECTION ( 'NONE',  ( 0.0000000000000000000, -1.000000000000000000, 0.0000000000000000000 ) ) ;
#105 = EDGE_LOOP ( 'NONE', ( #249, #88, #61, #319 ) ) ;
#106 = VERTEX_POINT ( 'NONE', #184 ) ;
#107 = AXIS2_PLACEMENT_3D ( 'NONE', #93, #14, #288 ) ;
#108 = VECTOR ( 'NONE', #240, 1000.000000000000000 ) ;
#109 = CARTESIAN_POINT ( 'NONE',  ( 2.835982664297611600, 0.0000000000000000000, 1.626302604415467400E-016 ) ) ;
#110 = COLOUR_RGB ( '',1.000000000000000000, 1.000000000000000000, 1.000000000000000000 ) ;
#111 = ORIENTED_EDGE ( 'NONE', *, *, #313, .T. ) ;
#112 = EDGE_CURVE ( 'NONE', #239, #314, #169, .T. ) ;
#113 = PRODUCT_DEFINITION_SHAPE ( 'NONE', 'NONE',  #341 ) ;
#114 = CIRCLE ( 'NONE', #316, 3.999999999999996400 ) ;
#115 = ADVANCED_FACE ( 'NONE', ( #296 ), #232, .T. ) ;
#116 = SURFACE_STYLE_FILL_AREA ( #38 ) ;
#117 = DIRECTION ( 'NONE',  ( -1.000000000000000000, -0.0000000000000000000, -0.0000000000000000000 ) ) ;
#118 = VERTEX_POINT ( 'NONE', #32 ) ;
#119 = DIRECTION ( 'NONE',  ( -1.000000000000000000, -0.0000000000000000000, -0.0000000000000000000 ) ) ;
#120 = FACE_OUTER_BOUND ( 'NONE', #4, .T. ) ;
#121 = CARTESIAN_POINT ( 'NONE',  ( -20.46401733570237600, 0.0000000000000000000, 0.0000000000000000000 ) ) ;
#122 = DIRECTION ( 'NONE',  ( 0.0000000000000000000, 0.0000000000000000000, 1.000000000000000000 ) ) ;
#123 = DIRECTION ( 'NONE',  ( 0.0000000000000000000, 0.0000000000000000000, 1.000000000000000000 ) ) ;
#124 = PRESENTATION_LAYER_ASSIGNMENT (  '', '', ( #183 ) ) ;
#125 = SURFACE_STYLE_FILL_AREA ( #189 ) ;
#126 = ORIENTED_EDGE ( 'NONE', *, *, #167, .F. ) ;
#127 = CARTESIAN_POINT ( 'NONE',  ( -3.030021086127372900, 0.0000000000000000000, -3.999999999999999100 ) ) ;
#128 = CARTESIAN_POINT ( 'NONE',  ( 1.880780716640811300, 0.0000000000000000000, 3.999999999999996400 ) ) ;
#129 = CARTESIAN_POINT ( 'NONE',  ( -9.702612178336682500, 0.0000000000000000000, 0.0000000000000000000 ) ) ;
#130 = FACE_OUTER_BOUND ( 'NONE', #136, .T. ) ;
#131 = AXIS2_PLACEMENT_3D ( 'NONE', #79, #226, #251 ) ;
#132 = CIRCLE ( 'NONE', #268, 22.69999999999999900 ) ;
#133 =( LENGTH_UNIT ( ) NAMED_UNIT ( * ) SI_UNIT ( .MILLI., .METRE. ) );
#134 = EDGE_CURVE ( 'NONE', #95, #311, #26, .T. ) ;
#135 = AXIS2_PLACEMENT_3D ( 'NONE', #43, #42, #40 ) ;
#136 = EDGE_LOOP ( 'NONE', ( #230, #185, #80 ) ) ;
#137 = EDGE_CURVE ( 'NONE', #118, #321, #21, .T. ) ;
#138 = ORIENTED_EDGE ( 'NONE', *, *, #221, .T. ) ;
#139 = DIRECTION ( 'NONE',  ( -1.000000000000000000, -0.0000000000000000000, -0.0000000000000000000 ) ) ;
#140 = MECHANICAL_DESIGN_GEOMETRIC_PRESENTATION_REPRESENTATION (  '', ( #183 ), #27 ) ;
#141 = DIRECTION ( 'NONE',  ( 0.0000000000000000000, 0.0000000000000000000, 1.000000000000000000 ) ) ;
#142 = DIRECTION ( 'NONE',  ( 0.0000000000000000000, 0.0000000000000000000, 1.000000000000000000 ) ) ;
#143 = CIRCLE ( 'NONE', #135, 5.300000000000007800 ) ;
#144 = ADVANCED_FACE ( 'NONE', ( #287 ), #343, .T. ) ;
#145 = AXIS2_PLACEMENT_3D ( 'NONE', #227, #29, #122 ) ;
#146 = DIRECTION ( 'NONE',  ( 0.0000000000000000000, 0.0000000000000000000, 1.000000000000000000 ) ) ;
#147 = AXIS2_PLACEMENT_3D ( 'NONE', #281, #174, #142 ) ;
#148 =( NAMED_UNIT ( * ) SI_UNIT ( $, .STERADIAN. ) SOLID_ANGLE_UNIT ( ) );
#149 = CLOSED_SHELL ( 'NONE', ( #85, #57, #304, #1, #144, #203 ) ) ;
#150 = DIRECTION ( 'NONE',  ( 0.0000000000000000000, 0.0000000000000000000, -1.000000000000000000 ) ) ;
#151 = DIRECTION ( 'NONE',  ( -1.000000000000000000, -0.0000000000000000000, -0.0000000000000000000 ) ) ;
#152 = CIRCLE ( 'NONE', #247, 3.999999999999998200 ) ;
#153 = DIRECTION ( 'NONE',  ( 0.0000000000000000000, -1.000000000000000000, 0.0000000000000000000 ) ) ;
#154 = DIRECTION ( 'NONE',  ( 0.0000000000000000000, 0.0000000000000000000, 1.000000000000000000 ) ) ;
#155 = EDGE_CURVE ( 'NONE', #270, #331, #179, .T. ) ;
#156 = CARTESIAN_POINT ( 'NONE',  ( -20.46401733570237600, 0.0000000000000000000, 0.0000000000000000000 ) ) ;
#157 = DIRECTION ( 'NONE',  ( 0.0000000000000000000, 0.0000000000000000000, 1.000000000000000000 ) ) ;
#158 = AXIS2_PLACEMENT_3D ( 'NONE', #39, #332, #312 ) ;
#159 = CIRCLE ( 'NONE', #86, 7.099999999999997900 ) ;
#160 =( NAMED_UNIT ( * ) PLANE_ANGLE_UNIT ( ) SI_UNIT ( $, .RADIAN. ) );
#161 = CARTESIAN_POINT ( 'NONE',  ( -3.030021086127372400, 0.0000000000000000000, 0.0000000000000000000 ) ) ;
#162 = ORIENTED_EDGE ( 'NONE', *, *, #245, .F. ) ;
#163 = EDGE_LOOP ( 'NONE', ( #293, #15, #263 ) ) ;
#164 = APPLICATION_PROTOCOL_DEFINITION ( 'draft international standard', 'automotive_design', 1998, #181 ) ;
#165 = FACE_OUTER_BOUND ( 'NONE', #105, .T. ) ;
#166 = EDGE_LOOP ( 'NONE', ( #23, #207, #306 ) ) ;
#167 = EDGE_CURVE ( 'NONE', #311, #106, #102, .T. ) ;
#168 = ORIENTED_EDGE ( 'NONE', *, *, #245, .T. ) ;
#169 = CIRCLE ( 'NONE', #271, 4.000000000000000000 ) ;
#170 = CARTESIAN_POINT ( 'NONE',  ( 1.880780716640811300, 0.0000000000000000000, 0.0000000000000000000 ) ) ;
#171 = ORIENTED_EDGE ( 'NONE', *, *, #78, .F. ) ;
#172 = AXIS2_PLACEMENT_3D ( 'NONE', #267, #290, #67 ) ;
#173 = ORIENTED_EDGE ( 'NONE', *, *, #167, .T. ) ;
#174 = DIRECTION ( 'NONE',  ( -1.000000000000000000, -0.0000000000000000000, -0.0000000000000000000 ) ) ;
#175 = ADVANCED_FACE ( 'NONE', ( #259 ), #308, .T. ) ;
#176 = DIRECTION ( 'NONE',  ( 0.0000000000000000000, 0.0000000000000000000, 1.000000000000000000 ) ) ;
#177 = CIRCLE ( 'NONE', #205, 4.000000000000000000 ) ;
#178 = ORIENTED_EDGE ( 'NONE', *, *, #68, .T. ) ;
#179 = CIRCLE ( 'NONE', #294, 3.999999999999996400 ) ;
#180 =( NAMED_UNIT ( * ) SI_UNIT ( $, .STERADIAN. ) SOLID_ANGLE_UNIT ( ) );
#181 = APPLICATION_CONTEXT ( 'automotive_design' ) ;
#182 = CARTESIAN_POINT ( 'NONE',  ( -9.702612178336682500, 0.0000000000000000000, 4.000000000000000000 ) ) ;
#183 = STYLED_ITEM ( 'NONE', ( #212 ), #197 ) ;
#184 = CARTESIAN_POINT ( 'NONE',  ( -4.264017335702385800, 0.0000000000000000000, -2.721193532557635500E-016 ) ) ;
#185 = ORIENTED_EDGE ( 'NONE', *, *, #137, .T. ) ;
#186 = SURFACE_SIDE_STYLE ('',( #125 ) ) ;
#187 = CARTESIAN_POINT ( 'NONE',  ( 2.835982664297611600, 0.0000000000000000000, 1.626302604415467400E-016 ) ) ;
#188 = ORIENTED_EDGE ( 'NONE', *, *, #155, .T. ) ;
#189 = FILL_AREA_STYLE ('',( #97 ) ) ;
#190 = SURFACE_STYLE_USAGE ( .BOTH. , #186 ) ;
#191 =( NAMED_UNIT ( * ) PLANE_ANGLE_UNIT ( ) SI_UNIT ( $, .RADIAN. ) );
#192 = ORIENTED_EDGE ( 'NONE', *, *, #68, .F. ) ;
#193 =( LENGTH_UNIT ( ) NAMED_UNIT ( * ) SI_UNIT ( .MILLI., .METRE. ) );
#194 = STYLED_ITEM ( 'NONE', ( #333 ), #317 ) ;
#195 =( NAMED_UNIT ( * ) SI_UNIT ( $, .STERADIAN. ) SOLID_ANGLE_UNIT ( ) );
#196 = FACE_OUTER_BOUND ( 'NONE', #342, .T. ) ;
#197 = ADVANCED_BREP_SHAPE_REPRESENTATION ( '145015', ( #9, #317, #81 ), #220 ) ;
#198 = EDGE_CURVE ( 'NONE', #321, #292, #51, .T. ) ;
#199 =( NAMED_UNIT ( * ) PLANE_ANGLE_UNIT ( ) SI_UNIT ( $, .RADIAN. ) );
#200 = ORIENTED_EDGE ( 'NONE', *, *, #257, .T. ) ;
#201 = FACE_OUTER_BOUND ( 'NONE', #166, .T. ) ;
#202 = SURFACE_STYLE_USAGE ( .BOTH. , #323 ) ;
#203 = ADVANCED_FACE ( 'NONE', ( #120 ), #91, .T. ) ;
#204 = CARTESIAN_POINT ( 'NONE',  ( -5.064017335702388300, 0.0000000000000000000, 1.626303258728256700E-016 ) ) ;
#205 = AXIS2_PLACEMENT_3D ( 'NONE', #69, #151, #310 ) ;
#206 = CARTESIAN_POINT ( 'NONE',  ( 0.0000000000000000000, 0.0000000000000000000, 0.0000000000000000000 ) ) ;
#207 = ORIENTED_EDGE ( 'NONE', *, *, #334, .T. ) ;
#208 = DIRECTION ( 'NONE',  ( 0.0000000000000000000, 0.0000000000000000000, 1.000000000000000000 ) ) ;
#209 = SURFACE_STYLE_FILL_AREA ( #90 ) ;
#210 = EDGE_CURVE ( 'NONE', #314, #311, #265, .T. ) ;
#211 = DIRECTION ( 'NONE',  ( 0.0000000000000000000, 0.0000000000000000000, 1.000000000000000000 ) ) ;
#212 = PRESENTATION_STYLE_ASSIGNMENT (( #190 ) ) ;
#213 = UNCERTAINTY_MEASURE_WITH_UNIT (LENGTH_MEASURE( 1.000000000000000100E-005 ), #193, 'distance_accuracy_value', 'NONE');
#214 = PRODUCT_CONTEXT ( 'NONE', #181, 'mechanical' ) ;
#215 = CARTESIAN_POINT ( 'NONE',  ( -1.586949605559631700, 0.0000000000000000000, 3.999999999999998200 ) ) ;
#216 = DIRECTION ( 'NONE',  ( 1.000000000000000000, 0.0000000000000000000, 0.0000000000000000000 ) ) ;
#217 = APPLICATION_CONTEXT ( 'automotive_design' ) ;
#218 = COLOUR_RGB ( '',1.000000000000000000, 1.000000000000000000, 1.000000000000000000 ) ;
#219 = SPHERICAL_SURFACE ( 'NONE', #145, 22.69999999999999900 ) ;
#220 =( GEOMETRIC_REPRESENTATION_CONTEXT ( 3 ) GLOBAL_UNCERTAINTY_ASSIGNED_CONTEXT ( ( #258 ) ) GLOBAL_UNIT_ASSIGNED_CONTEXT ( ( #133, #160, #180 ) ) REPRESENTATION_CONTEXT ( 'NONE', 'WORKASPACE' ) );
#221 = EDGE_CURVE ( 'NONE', #331, #270, #114, .T. ) ;
#222 = MECHANICAL_DESIGN_GEOMETRIC_PRESENTATION_REPRESENTATION (  '', ( #194 ), #336 ) ;
#223 = ORIENTED_EDGE ( 'NONE', *, *, #134, .T. ) ;
#224 = CYLINDRICAL_SURFACE ( 'NONE', #16, 3.999999999999997300 ) ;
#225 = DIRECTION ( 'NONE',  ( -0.0000000000000000000, -1.000000000000000000, -0.0000000000000000000 ) ) ;
#226 = DIRECTION ( 'NONE',  ( 0.0000000000000000000, -1.000000000000000000, -1.224646799147353200E-016 ) ) ;
#227 = CARTESIAN_POINT ( 'NONE',  ( -20.46401733570237600, 0.0000000000000000000, 0.0000000000000000000 ) ) ;
#228 = ADVANCED_FACE ( 'NONE', ( #196 ), #54, .T. ) ;
#229 = FILL_AREA_STYLE_COLOUR ( '', #340 ) ;
#230 = ORIENTED_EDGE ( 'NONE', *, *, #313, .F. ) ;
#231 = DIRECTION ( 'NONE',  ( -1.000000000000000000, -0.0000000000000000000, -0.0000000000000000000 ) ) ;
#232 = SPHERICAL_SURFACE ( 'NONE', #309, 5.300000000000007800 ) ;
#233 = EDGE_CURVE ( 'NONE', #242, #239, #47, .T. ) ;
#234 = CARTESIAN_POINT ( 'NONE',  ( -0.5519199926577972300, 0.0000000000000000000, 0.0000000000000000000 ) ) ;
#235 = AXIS2_PLACEMENT_3D ( 'NONE', #60, #63, #10 ) ;
#236 = DIRECTION ( 'NONE',  ( -1.000000000000000000, -0.0000000000000000000, -0.0000000000000000000 ) ) ;
#237 = ORIENTED_EDGE ( 'NONE', *, *, #210, .F. ) ;
#238 = APPLICATION_PROTOCOL_DEFINITION ( 'draft international standard', 'automotive_design', 1998, #217 ) ;
#239 = VERTEX_POINT ( 'NONE', #94 ) ;
#240 = DIRECTION ( 'NONE',  ( -1.000000000000000000, -0.0000000000000000000, -0.0000000000000000000 ) ) ;
#241 = FACE_OUTER_BOUND ( 'NONE', #101, .T. ) ;
#242 = VERTEX_POINT ( 'NONE', #264 ) ;
#243 = MECHANICAL_DESIGN_GEOMETRIC_PRESENTATION_REPRESENTATION (  '', ( #76 ), #327 ) ;
#244 = LINE ( 'NONE', #11, #108 ) ;
#245 = EDGE_CURVE ( 'NONE', #95, #106, #159, .T. ) ;
#246 = ORIENTED_EDGE ( 'NONE', *, *, #198, .F. ) ;
#247 = AXIS2_PLACEMENT_3D ( 'NONE', #260, #87, #307 ) ;
#248 = VECTOR ( 'NONE', #339, 1000.000000000000000 ) ;
#249 = ORIENTED_EDGE ( 'NONE', *, *, #297, .F. ) ;
#250 = DIRECTION ( 'NONE',  ( 0.0000000000000000000, 0.0000000000000000000, -1.000000000000000000 ) ) ;
#251 = DIRECTION ( 'NONE',  ( 0.0000000000000000000, 1.224646799147353200E-016, -1.000000000000000000 ) ) ;
#252 = AXIS2_PLACEMENT_3D ( 'NONE', #161, #269, #71 ) ;
#253 = SPHERICAL_SURFACE ( 'NONE', #50, 5.300000000000007800 ) ;
#254 = ORIENTED_EDGE ( 'NONE', *, *, #2, .T. ) ;
#255 = EDGE_LOOP ( 'NONE', ( #84, #111, #55 ) ) ;
#256 = ADVANCED_FACE ( 'NONE', ( #298 ), #24, .T. ) ;
#257 = EDGE_CURVE ( 'NONE', #314, #239, #177, .T. ) ;
#258 = UNCERTAINTY_MEASURE_WITH_UNIT (LENGTH_MEASURE( 1.000000000000000100E-005 ), #133, 'distance_accuracy_value', 'NONE');
#259 = FACE_OUTER_BOUND ( 'NONE', #75, .T. ) ;
#260 = CARTESIAN_POINT ( 'NONE',  ( -1.586949605559631700, 0.0000000000000000000, 0.0000000000000000000 ) ) ;
#261 = PRESENTATION_LAYER_ASSIGNMENT (  '', '', ( #76 ) ) ;
#262 = CARTESIAN_POINT ( 'NONE',  ( -1.586949605559631700, 0.0000000000000000000, 0.0000000000000000000 ) ) ;
#263 = ORIENTED_EDGE ( 'NONE', *, *, #112, .F. ) ;
#264 = CARTESIAN_POINT ( 'NONE',  ( 0.2359826642976195500, 0.0000000000000000000, 4.871617276468747500E-016 ) ) ;
#265 = LINE ( 'NONE', #182, #37 ) ;
#266 = PRODUCT ( '145015', '145015', '', ( #214 ) ) ;
#267 = CARTESIAN_POINT ( 'NONE',  ( -5.064017335702388300, 0.0000000000000000000, 1.626303258728256700E-016 ) ) ;
#268 = AXIS2_PLACEMENT_3D ( 'NONE', #121, #100, #99 ) ;
#269 = DIRECTION ( 'NONE',  ( -1.000000000000000000, -0.0000000000000000000, -0.0000000000000000000 ) ) ;
#270 = VERTEX_POINT ( 'NONE', #128 ) ;
#271 = AXIS2_PLACEMENT_3D ( 'NONE', #285, #279, #141 ) ;
#272 = LINE ( 'NONE', #3, #280 ) ;
#273 = PRODUCT_DEFINITION_CONTEXT ( 'detailed design', #217, 'design' ) ;
#274 = UNCERTAINTY_MEASURE_WITH_UNIT (LENGTH_MEASURE( 1.000000000000000100E-005 ), #53, 'distance_accuracy_value', 'NONE');
#275 = CYLINDRICAL_SURFACE ( 'NONE', #283, 4.000000000000000000 ) ;
#276 = SPHERICAL_SURFACE ( 'NONE', #48, 5.300000000000007800 ) ;
#277 = LINE ( 'NONE', #18, #248 ) ;
#278 = CLOSED_SHELL ( 'NONE', ( #115, #228, #175, #329, #284, #256 ) ) ;
#279 = DIRECTION ( 'NONE',  ( -1.000000000000000000, -0.0000000000000000000, -0.0000000000000000000 ) ) ;
#280 = VECTOR ( 'NONE', #119, 1000.000000000000000 ) ;
#281 = CARTESIAN_POINT ( 'NONE',  ( -3.030021086127372400, 0.0000000000000000000, 0.0000000000000000000 ) ) ;
#282 = EDGE_CURVE ( 'NONE', #311, #95, #318, .T. ) ;
#283 = AXIS2_PLACEMENT_3D ( 'NONE', #129, #291, #123 ) ;
#284 = ADVANCED_FACE ( 'NONE', ( #165 ), #275, .T. ) ;
#285 = CARTESIAN_POINT ( 'NONE',  ( -1.586949605559629300, 0.0000000000000000000, 0.0000000000000000000 ) ) ;
#286 = ORIENTED_EDGE ( 'NONE', *, *, #334, .F. ) ;
#287 = FACE_OUTER_BOUND ( 'NONE', #299, .T. ) ;
#288 = DIRECTION ( 'NONE',  ( 0.0000000000000000000, 0.0000000000000000000, 1.000000000000000000 ) ) ;
#289 = AXIS2_PLACEMENT_3D ( 'NONE', #156, #153, #150 ) ;
#290 = DIRECTION ( 'NONE',  ( -0.0000000000000000000, 1.000000000000000000, 1.224646799147353200E-016 ) ) ;
#291 = DIRECTION ( 'NONE',  ( -1.000000000000000000, -0.0000000000000000000, -0.0000000000000000000 ) ) ;
#292 = VERTEX_POINT ( 'NONE', #215 ) ;
#293 = ORIENTED_EDGE ( 'NONE', *, *, #233, .F. ) ;
#294 = AXIS2_PLACEMENT_3D ( 'NONE', #170, #139, #154 ) ;
#295 = ORIENTED_EDGE ( 'NONE', *, *, #257, .F. ) ;
#296 = FACE_OUTER_BOUND ( 'NONE', #52, .T. ) ;
#297 = EDGE_CURVE ( 'NONE', #239, #95, #277, .T. ) ;
#298 = FACE_OUTER_BOUND ( 'NONE', #163, .T. ) ;
#299 = EDGE_LOOP ( 'NONE', ( #301, #138, #178, #246 ) ) ;
#300 = DIRECTION ( 'NONE',  ( -0.0000000000000000000, 1.000000000000000000, 1.224646799147353200E-016 ) ) ;
#301 = ORIENTED_EDGE ( 'NONE', *, *, #2, .F. ) ;
#302 = DIRECTION ( 'NONE',  ( 0.0000000000000000000, -1.224646799147353200E-016, 1.000000000000000000 ) ) ;
#303 = EDGE_CURVE ( 'NONE', #242, #314, #33, .T. ) ;
#304 = ADVANCED_FACE ( 'NONE', ( #130 ), #253, .F. ) ;
#305 = DIRECTION ( 'NONE',  ( 0.0000000000000000000, 1.000000000000000000, 0.0000000000000000000 ) ) ;
#306 = ORIENTED_EDGE ( 'NONE', *, *, #155, .F. ) ;
#307 = DIRECTION ( 'NONE',  ( 0.0000000000000000000, 0.0000000000000000000, 1.000000000000000000 ) ) ;
#308 = SPHERICAL_SURFACE ( 'NONE', #322, 7.099999999999997900 ) ;
#309 = AXIS2_PLACEMENT_3D ( 'NONE', #41, #56, #28 ) ;
#310 = DIRECTION ( 'NONE',  ( 0.0000000000000000000, 0.0000000000000000000, 1.000000000000000000 ) ) ;
#311 = VERTEX_POINT ( 'NONE', #5 ) ;
#312 = DIRECTION ( 'NONE',  ( 0.0000000000000000000, 0.0000000000000000000, 1.000000000000000000 ) ) ;
#313 = EDGE_CURVE ( 'NONE', #118, #292, #143, .T. ) ;
#314 = VERTEX_POINT ( 'NONE', #8 ) ;
#315 = DIRECTION ( 'NONE',  ( 0.0000000000000000000, 1.000000000000000000, 0.0000000000000000000 ) ) ;
#316 = AXIS2_PLACEMENT_3D ( 'NONE', #65, #236, #36 ) ;
#317 = MANIFOLD_SOLID_BREP ( 'Ðý×ª3', #149 ) ;
#318 = CIRCLE ( 'NONE', #252, 4.000000000000000000 ) ;
#319 = ORIENTED_EDGE ( 'NONE', *, *, #134, .F. ) ;
#320 = PRESENTATION_LAYER_ASSIGNMENT (  '', '', ( #194 ) ) ;
#321 = VERTEX_POINT ( 'NONE', #19 ) ;
#322 = AXIS2_PLACEMENT_3D ( 'NONE', #109, #225, #250 ) ;
#323 = SURFACE_SIDE_STYLE ('',( #209 ) ) ;
#324 = DIRECTION ( 'NONE',  ( -1.000000000000000000, -0.0000000000000000000, -0.0000000000000000000 ) ) ;
#325 = ORIENTED_EDGE ( 'NONE', *, *, #221, .F. ) ;
#326 = CARTESIAN_POINT ( 'NONE',  ( -0.5519199926577972300, 0.0000000000000000000, 0.0000000000000000000 ) ) ;
#327 =( GEOMETRIC_REPRESENTATION_CONTEXT ( 3 ) GLOBAL_UNCERTAINTY_ASSIGNED_CONTEXT ( ( #274 ) ) GLOBAL_UNIT_ASSIGNED_CONTEXT ( ( #53, #199, #148 ) ) REPRESENTATION_CONTEXT ( 'NONE', 'WORKASPACE' ) );
#328 = CARTESIAN_POINT ( 'NONE',  ( -5.064017335702388300, 0.0000000000000000000, 1.626303258728256700E-016 ) ) ;
#329 = ADVANCED_FACE ( 'NONE', ( #241 ), #12, .T. ) ;
#330 = SHAPE_DEFINITION_REPRESENTATION ( #113, #197 ) ;
#331 = VERTEX_POINT ( 'NONE', #77 ) ;
#332 = DIRECTION ( 'NONE',  ( 0.0000000000000000000, 1.000000000000000000, 0.0000000000000000000 ) ) ;
#333 = PRESENTATION_STYLE_ASSIGNMENT (( #44 ) ) ;
#334 = EDGE_CURVE ( 'NONE', #346, #331, #132, .T. ) ;
#335 = PRESENTATION_STYLE_ASSIGNMENT (( #202 ) ) ;
#336 =( GEOMETRIC_REPRESENTATION_CONTEXT ( 3 ) GLOBAL_UNCERTAINTY_ASSIGNED_CONTEXT ( ( #25 ) ) GLOBAL_UNIT_ASSIGNED_CONTEXT ( ( #66, #59, #49 ) ) REPRESENTATION_CONTEXT ( 'NONE', 'WORKASPACE' ) );
#337 = DIRECTION ( 'NONE',  ( 0.0000000000000000000, 1.000000000000000000, -0.0000000000000000000 ) ) ;
#338 = CIRCLE ( 'NONE', #289, 22.69999999999999900 ) ;
#339 = DIRECTION ( 'NONE',  ( -1.000000000000000000, -0.0000000000000000000, -0.0000000000000000000 ) ) ;
#340 = COLOUR_RGB ( '',1.000000000000000000, 1.000000000000000000, 1.000000000000000000 ) ;
#341 = PRODUCT_DEFINITION ( 'Î´Öª', '', #6, #273 ) ;
#342 = EDGE_LOOP ( 'NONE', ( #200, #46, #30, #237 ) ) ;
#343 = CYLINDRICAL_SURFACE ( 'NONE', #62, 3.999999999999997300 ) ;
#344 = EDGE_CURVE ( 'NONE', #346, #270, #338, .T. ) ;
#345 = AXIS2_PLACEMENT_3D ( 'NONE', #347, #104, #17 ) ;
#346 = VERTEX_POINT ( 'NONE', #92 ) ;
#347 = CARTESIAN_POINT ( 'NONE',  ( -5.064017335702388300, 0.0000000000000000000, 1.626303258728256700E-016 ) ) ;
ENDSEC;
END-ISO-10303-21;
