ISO-10303-21;
HEADER;
FILE_DESCRIPTION (( 'STEP AP214' ),
    '1' );
FILE_NAME ('145024.STEP',
    '2019-05-10T07:55:53',
    ( 'user' ),
    ( 'Î¢ÈíÖÐ¹ú' ),
    'SwSTEP 2.0',
    'SolidWorks 2016',
    '' );
FILE_SCHEMA (( 'AUTOMOTIVE_DESIGN' ));
ENDSEC;

DATA;
#1 = ORIENTED_EDGE ( 'NONE', *, *, #98, .T. ) ;
#2 = PRODUCT_CONTEXT ( 'NONE', #8, 'mechanical' ) ;
#3 = DIRECTION ( 'NONE',  ( 0.0000000000000000000, -1.224646799147353200E-016, 1.000000000000000000 ) ) ;
#4 = SURFACE_SIDE_STYLE ('',( #75 ) ) ;
#5 =( NAMED_UNIT ( * ) SI_UNIT ( $, .STERADIAN. ) SOLID_ANGLE_UNIT ( ) );
#6 = APPLICATION_CONTEXT ( 'automotive_design' ) ;
#7 = EDGE_LOOP ( 'NONE', ( #21, #73, #311 ) ) ;
#8 = APPLICATION_CONTEXT ( 'automotive_design' ) ;
#9 = AXIS2_PLACEMENT_3D ( 'NONE', #253, #254, #269 ) ;
#10 = DIRECTION ( 'NONE',  ( 0.0000000000000000000, -1.224646799147353200E-016, 1.000000000000000000 ) ) ;
#11 = AXIS2_PLACEMENT_3D ( 'NONE', #66, #124, #150 ) ;
#12 = CARTESIAN_POINT ( 'NONE',  ( -9.122170847029236600, 0.0000000000000000000, 0.0000000000000000000 ) ) ;
#13 = AXIS2_PLACEMENT_3D ( 'NONE', #217, #123, #129 ) ;
#14 = CARTESIAN_POINT ( 'NONE',  ( -0.1401053830059444100, 0.0000000000000000000, 6.350000000000002300 ) ) ;
#15 = CARTESIAN_POINT ( 'NONE',  ( -9.702612178336682500, 7.776507174585692200E-016, -6.349999999999999600 ) ) ;
#16 = EDGE_CURVE ( 'NONE', #280, #130, #335, .T. ) ;
#17 = APPLICATION_PROTOCOL_DEFINITION ( 'draft international standard', 'automotive_design', 1998, #6 ) ;
#18 = ADVANCED_FACE ( 'NONE', ( #333 ), #34, .T. ) ;
#19 = EDGE_LOOP ( 'NONE', ( #89, #329, #162, #70 ) ) ;
#20 = AXIS2_PLACEMENT_3D ( 'NONE', #99, #105, #111 ) ;
#21 = ORIENTED_EDGE ( 'NONE', *, *, #59, .T. ) ;
#22 = FILL_AREA_STYLE ('',( #316 ) ) ;
#23 = CARTESIAN_POINT ( 'NONE',  ( -0.1401053830059444100, 0.0000000000000000000, 6.349999999999999600 ) ) ;
#24 = DIRECTION ( 'NONE',  ( 0.0000000000000000000, 0.0000000000000000000, 1.000000000000000000 ) ) ;
#25 = AXIS2_PLACEMENT_3D ( 'NONE', #195, #91, #90 ) ;
#26 = DIRECTION ( 'NONE',  ( 0.0000000000000000000, 1.000000000000000000, 0.0000000000000000000 ) ) ;
#27 = CARTESIAN_POINT ( 'NONE',  ( 3.036861539874806200, 7.776507174585693100E-016, -6.349999999999999600 ) ) ;
#28 = EDGE_CURVE ( 'NONE', #325, #164, #108, .T. ) ;
#29 = DIRECTION ( 'NONE',  ( 0.0000000000000000000, 0.0000000000000000000, 1.000000000000000000 ) ) ;
#30 = ORIENTED_EDGE ( 'NONE', *, *, #139, .T. ) ;
#31 = AXIS2_PLACEMENT_3D ( 'NONE', #215, #26, #131 ) ;
#32 = CIRCLE ( 'NONE', #337, 6.349999999999999600 ) ;
#33 = CIRCLE ( 'NONE', #198, 6.350000000000002300 ) ;
#34 = CYLINDRICAL_SURFACE ( 'NONE', #13, 6.350000000000001400 ) ;
#35 = STYLED_ITEM ( 'NONE', ( #231 ), #112 ) ;
#36 = ADVANCED_FACE ( 'NONE', ( #340 ), #336, .F. ) ;
#37 = DIRECTION ( 'NONE',  ( -0.0000000000000000000, 1.000000000000000000, 1.224646799147353200E-016 ) ) ;
#38 = CARTESIAN_POINT ( 'NONE',  ( -0.1401053830059444100, 0.0000000000000000000, 0.0000000000000000000 ) ) ;
#39 = CARTESIAN_POINT ( 'NONE',  ( -9.702612178336682500, 0.0000000000000000000, 0.0000000000000000000 ) ) ;
#40 = DIRECTION ( 'NONE',  ( 0.0000000000000000000, 0.0000000000000000000, 1.000000000000000000 ) ) ;
#41 = ORIENTED_EDGE ( 'NONE', *, *, #43, .F. ) ;
#42 = CARTESIAN_POINT ( 'NONE',  ( -0.1401053830059444100, 0.0000000000000000000, 0.0000000000000000000 ) ) ;
#43 = EDGE_CURVE ( 'NONE', #283, #321, #331, .T. ) ;
#44 = DIRECTION ( 'NONE',  ( 0.0000000000000000000, 1.000000000000000000, 0.0000000000000000000 ) ) ;
#45 = DIRECTION ( 'NONE',  ( 0.0000000000000000000, 0.0000000000000000000, 1.000000000000000000 ) ) ;
#46 = CARTESIAN_POINT ( 'NONE',  ( -0.1401053830059444100, 7.776507174585695100E-016, -6.350000000000002300 ) ) ;
#47 = SURFACE_STYLE_USAGE ( .BOTH. , #120 ) ;
#48 = EDGE_LOOP ( 'NONE', ( #115, #300, #179, #163 ) ) ;
#49 = DIRECTION ( 'NONE',  ( 0.0000000000000000000, 0.0000000000000000000, 1.000000000000000000 ) ) ;
#50 = DIRECTION ( 'NONE',  ( -1.000000000000000000, -0.0000000000000000000, -0.0000000000000000000 ) ) ;
#51 = AXIS2_PLACEMENT_3D ( 'NONE', #222, #37, #132 ) ;
#52 = DIRECTION ( 'NONE',  ( 0.0000000000000000000, 0.0000000000000000000, 1.000000000000000000 ) ) ;
#53 = DIRECTION ( 'NONE',  ( -1.000000000000000000, -0.0000000000000000000, -0.0000000000000000000 ) ) ;
#54 = PRESENTATION_LAYER_ASSIGNMENT (  '', '', ( #35 ) ) ;
#55 = ORIENTED_EDGE ( 'NONE', *, *, #249, .T. ) ;
#56 = DIRECTION ( 'NONE',  ( -1.000000000000000000, -0.0000000000000000000, -0.0000000000000000000 ) ) ;
#57 = CARTESIAN_POINT ( 'NONE',  ( -9.122170847029236600, 0.0000000000000000000, 0.0000000000000000000 ) ) ;
#58 = DIRECTION ( 'NONE',  ( 0.0000000000000000000, -1.224646799147353500E-016, 1.000000000000000000 ) ) ;
#59 = EDGE_CURVE ( 'NONE', #321, #214, #255, .T. ) ;
#60 = ORIENTED_EDGE ( 'NONE', *, *, #28, .T. ) ;
#61 = DIRECTION ( 'NONE',  ( 0.0000000000000000000, -1.000000000000000000, 0.0000000000000000000 ) ) ;
#62 = AXIS2_PLACEMENT_3D ( 'NONE', #63, #72, #49 ) ;
#63 = CARTESIAN_POINT ( 'NONE',  ( -55.92217084702923600, 0.0000000000000000000, 0.0000000000000000000 ) ) ;
#64 = DIRECTION ( 'NONE',  ( 0.0000000000000000000, 1.000000000000000000, 0.0000000000000000000 ) ) ;
#65 = ORIENTED_EDGE ( 'NONE', *, *, #221, .F. ) ;
#66 = CARTESIAN_POINT ( 'NONE',  ( 10.27782915297076200, 0.0000000000000000000, -1.615587133892632200E-024 ) ) ;
#67 = MECHANICAL_DESIGN_GEOMETRIC_PRESENTATION_REPRESENTATION (  '', ( #35 ), #83 ) ;
#68 = DIRECTION ( 'NONE',  ( 0.0000000000000000000, 0.0000000000000000000, -1.000000000000000000 ) ) ;
#69 = ORIENTED_EDGE ( 'NONE', *, *, #139, .F. ) ;
#70 = ORIENTED_EDGE ( 'NONE', *, *, #275, .F. ) ;
#71 = FILL_AREA_STYLE ('',( #226 ) ) ;
#72 = DIRECTION ( 'NONE',  ( 0.0000000000000000000, 1.000000000000000000, 0.0000000000000000000 ) ) ;
#73 = ORIENTED_EDGE ( 'NONE', *, *, #161, .T. ) ;
#74 = EDGE_CURVE ( 'NONE', #283, #164, #100, .T. ) ;
#75 = SURFACE_STYLE_FILL_AREA ( #262 ) ;
#76 = ORIENTED_EDGE ( 'NONE', *, *, #119, .F. ) ;
#77 =( LENGTH_UNIT ( ) NAMED_UNIT ( * ) SI_UNIT ( .MILLI., .METRE. ) );
#78 = COLOUR_RGB ( '',1.000000000000000000, 1.000000000000000000, 1.000000000000000000 ) ;
#79 = ORIENTED_EDGE ( 'NONE', *, *, #207, .T. ) ;
#80 = AXIS2_PLACEMENT_3D ( 'NONE', #57, #61, #68 ) ;
#81 = VERTEX_POINT ( 'NONE', #265 ) ;
#82 = DIRECTION ( 'NONE',  ( 0.0000000000000000000, 0.0000000000000000000, 1.000000000000000000 ) ) ;
#83 =( GEOMETRIC_REPRESENTATION_CONTEXT ( 3 ) GLOBAL_UNCERTAINTY_ASSIGNED_CONTEXT ( ( #201 ) ) GLOBAL_UNIT_ASSIGNED_CONTEXT ( ( #343, #293, #5 ) ) REPRESENTATION_CONTEXT ( 'NONE', 'WORKASPACE' ) );
#84 = EDGE_LOOP ( 'NONE', ( #76, #306, #174 ) ) ;
#85 = CLOSED_SHELL ( 'NONE', ( #117, #259, #145, #86, #312, #284 ) ) ;
#86 = ADVANCED_FACE ( 'NONE', ( #203 ), #258, .T. ) ;
#87 = ORIENTED_EDGE ( 'NONE', *, *, #186, .F. ) ;
#88 = DIRECTION ( 'NONE',  ( -1.000000000000000000, -0.0000000000000000000, -0.0000000000000000000 ) ) ;
#89 = ORIENTED_EDGE ( 'NONE', *, *, #167, .F. ) ;
#90 = DIRECTION ( 'NONE',  ( 0.0000000000000000000, 0.0000000000000000000, -1.000000000000000000 ) ) ;
#91 = DIRECTION ( 'NONE',  ( 0.0000000000000000000, -1.000000000000000000, 0.0000000000000000000 ) ) ;
#92 =( GEOMETRIC_REPRESENTATION_CONTEXT ( 3 ) GLOBAL_UNCERTAINTY_ASSIGNED_CONTEXT ( ( #116 ) ) GLOBAL_UNIT_ASSIGNED_CONTEXT ( ( #114, #184, #191 ) ) REPRESENTATION_CONTEXT ( 'NONE', 'WORKASPACE' ) );
#93 = SURFACE_STYLE_FILL_AREA ( #71 ) ;
#94 = DIRECTION ( 'NONE',  ( -1.000000000000000000, -0.0000000000000000000, -0.0000000000000000000 ) ) ;
#95 = ORIENTED_EDGE ( 'NONE', *, *, #118, .F. ) ;
#96 = CARTESIAN_POINT ( 'NONE',  ( -0.9510398907041162100, 0.0000000000000000000, 6.349999999999999600 ) ) ;
#97 = EDGE_CURVE ( 'NONE', #214, #321, #32, .T. ) ;
#98 = EDGE_CURVE ( 'NONE', #321, #175, #328, .T. ) ;
#99 = CARTESIAN_POINT ( 'NONE',  ( -0.1401053830059444100, 0.0000000000000000000, 0.0000000000000000000 ) ) ;
#100 = CIRCLE ( 'NONE', #319, 6.349999999999999600 ) ;
#101 = CARTESIAN_POINT ( 'NONE',  ( 1.877829152970762000, 0.0000000000000000000, 6.735557395310442000E-016 ) ) ;
#102 = ORIENTED_EDGE ( 'NONE', *, *, #233, .F. ) ;
#103 = AXIS2_PLACEMENT_3D ( 'NONE', #38, #278, #52 ) ;
#104 = CARTESIAN_POINT ( 'NONE',  ( -0.5519199926577972300, 0.0000000000000000000, 0.0000000000000000000 ) ) ;
#105 = DIRECTION ( 'NONE',  ( -1.000000000000000000, -0.0000000000000000000, -0.0000000000000000000 ) ) ;
#106 = FACE_OUTER_BOUND ( 'NONE', #7, .T. ) ;
#107 = SPHERICAL_SURFACE ( 'NONE', #281, 59.29999999999999700 ) ;
#108 = CIRCLE ( 'NONE', #342, 11.00000000000000000 ) ;
#109 = ORIENTED_EDGE ( 'NONE', *, *, #286, .T. ) ;
#110 = AXIS2_PLACEMENT_3D ( 'NONE', #256, #211, #58 ) ;
#111 = DIRECTION ( 'NONE',  ( 0.0000000000000000000, 0.0000000000000000000, 1.000000000000000000 ) ) ;
#112 = MANIFOLD_SOLID_BREP ( 'Ðý×ª1', #85 ) ;
#113 = ORIENTED_EDGE ( 'NONE', *, *, #137, .T. ) ;
#114 =( LENGTH_UNIT ( ) NAMED_UNIT ( * ) SI_UNIT ( .MILLI., .METRE. ) );
#115 = ORIENTED_EDGE ( 'NONE', *, *, #249, .F. ) ;
#116 = UNCERTAINTY_MEASURE_WITH_UNIT (LENGTH_MEASURE( 1.000000000000000100E-005 ), #114, 'distance_accuracy_value', 'NONE');
#117 = ADVANCED_FACE ( 'NONE', ( #282 ), #277, .T. ) ;
#118 = EDGE_CURVE ( 'NONE', #224, #280, #266, .T. ) ;
#119 = EDGE_CURVE ( 'NONE', #224, #130, #271, .T. ) ;
#120 = SURFACE_SIDE_STYLE ('',( #93 ) ) ;
#121 = CARTESIAN_POINT ( 'NONE',  ( 3.036861539874806200, 0.0000000000000000000, 6.349999999999999600 ) ) ;
#122 = AXIS2_PLACEMENT_3D ( 'NONE', #223, #53, #29 ) ;
#123 = DIRECTION ( 'NONE',  ( -1.000000000000000000, -0.0000000000000000000, -0.0000000000000000000 ) ) ;
#124 = DIRECTION ( 'NONE',  ( 0.0000000000000000000, 1.000000000000000000, 0.0000000000000000000 ) ) ;
#125 = CYLINDRICAL_SURFACE ( 'NONE', #157, 6.350000000000001400 ) ;
#126 = FILL_AREA_STYLE_COLOUR ( '', #78 ) ;
#127 = AXIS2_PLACEMENT_3D ( 'NONE', #192, #44, #197 ) ;
#128 =( NAMED_UNIT ( * ) PLANE_ANGLE_UNIT ( ) SI_UNIT ( $, .RADIAN. ) );
#129 = DIRECTION ( 'NONE',  ( 0.0000000000000000000, 0.0000000000000000000, 1.000000000000000000 ) ) ;
#130 = VERTEX_POINT ( 'NONE', #121 ) ;
#131 = DIRECTION ( 'NONE',  ( 0.0000000000000000000, 0.0000000000000000000, 1.000000000000000000 ) ) ;
#132 = DIRECTION ( 'NONE',  ( 0.0000000000000000000, -1.224646799147353200E-016, 1.000000000000000000 ) ) ;
#133 = CYLINDRICAL_SURFACE ( 'NONE', #136, 6.349999999999999600 ) ;
#134 = PRODUCT ( '145024', '145024', '', ( #2 ) ) ;
#135 = COLOUR_RGB ( '',1.000000000000000000, 1.000000000000000000, 1.000000000000000000 ) ;
#136 = AXIS2_PLACEMENT_3D ( 'NONE', #39, #50, #82 ) ;
#137 = EDGE_CURVE ( 'NONE', #130, #280, #153, .T. ) ;
#138 = CARTESIAN_POINT ( 'NONE',  ( 3.036861539874806200, 0.0000000000000000000, 0.0000000000000000000 ) ) ;
#139 = EDGE_CURVE ( 'NONE', #274, #290, #33, .T. ) ;
#140 = DIRECTION ( 'NONE',  ( 0.0000000000000000000, 0.0000000000000000000, 1.000000000000000000 ) ) ;
#141 = AXIS2_PLACEMENT_3D ( 'NONE', #12, #313, #251 ) ;
#142 = EDGE_LOOP ( 'NONE', ( #297, #109, #65 ) ) ;
#143 = DIRECTION ( 'NONE',  ( 0.0000000000000000000, 1.000000000000000000, 0.0000000000000000000 ) ) ;
#144 = DIRECTION ( 'NONE',  ( 0.0000000000000000000, 0.0000000000000000000, 1.000000000000000000 ) ) ;
#145 = ADVANCED_FACE ( 'NONE', ( #106 ), #243, .T. ) ;
#146 = AXIS2_PLACEMENT_3D ( 'NONE', #273, #287, #189 ) ;
#147 = SHAPE_DEFINITION_REPRESENTATION ( #208, #227 ) ;
#148 = ORIENTED_EDGE ( 'NONE', *, *, #286, .F. ) ;
#149 = CARTESIAN_POINT ( 'NONE',  ( -0.1401053830059444100, 0.0000000000000000000, 0.0000000000000000000 ) ) ;
#150 = DIRECTION ( 'NONE',  ( 0.0000000000000000000, 0.0000000000000000000, 1.000000000000000000 ) ) ;
#151 = CARTESIAN_POINT ( 'NONE',  ( 10.27782915297076200, 0.0000000000000000000, -1.615587133892632200E-024 ) ) ;
#152 = FACE_OUTER_BOUND ( 'NONE', #19, .T. ) ;
#153 = CIRCLE ( 'NONE', #173, 6.349999999999999600 ) ;
#154 = SURFACE_STYLE_USAGE ( .BOTH. , #347 ) ;
#155 = CARTESIAN_POINT ( 'NONE',  ( -9.122170847029236600, 0.0000000000000000000, 0.0000000000000000000 ) ) ;
#156 = CARTESIAN_POINT ( 'NONE',  ( -0.1401053830059444100, 7.776507174585692200E-016, -6.349999999999999600 ) ) ;
#157 = AXIS2_PLACEMENT_3D ( 'NONE', #104, #88, #45 ) ;
#158 = SURFACE_STYLE_FILL_AREA ( #22 ) ;
#159 = FACE_OUTER_BOUND ( 'NONE', #142, .T. ) ;
#160 = DIRECTION ( 'NONE',  ( 0.0000000000000000000, 0.0000000000000000000, 1.000000000000000000 ) ) ;
#161 = EDGE_CURVE ( 'NONE', #214, #175, #261, .T. ) ;
#162 = ORIENTED_EDGE ( 'NONE', *, *, #186, .T. ) ;
#163 = ORIENTED_EDGE ( 'NONE', *, *, #97, .F. ) ;
#164 = VERTEX_POINT ( 'NONE', #156 ) ;
#165 = DIRECTION ( 'NONE',  ( -1.000000000000000000, -0.0000000000000000000, -0.0000000000000000000 ) ) ;
#166 = DIRECTION ( 'NONE',  ( -1.000000000000000000, -0.0000000000000000000, -0.0000000000000000000 ) ) ;
#167 = EDGE_CURVE ( 'NONE', #280, #290, #237, .T. ) ;
#168 = FACE_OUTER_BOUND ( 'NONE', #48, .T. ) ;
#169 = CARTESIAN_POINT ( 'NONE',  ( -2.622170847029238400, 0.0000000000000000000, 7.898971838344557400E-016 ) ) ;
#170 = CYLINDRICAL_SURFACE ( 'NONE', #122, 6.349999999999999600 ) ;
#171 = VECTOR ( 'NONE', #318, 1000.000000000000000 ) ;
#172 = SPHERICAL_SURFACE ( 'NONE', #141, 11.00000000000000000 ) ;
#173 = AXIS2_PLACEMENT_3D ( 'NONE', #138, #165, #160 ) ;
#174 = ORIENTED_EDGE ( 'NONE', *, *, #137, .F. ) ;
#175 = VERTEX_POINT ( 'NONE', #169 ) ;
#176 = CARTESIAN_POINT ( 'NONE',  ( -0.5519199926577972300, 7.776507174585694100E-016, -6.350000000000001400 ) ) ;
#177 = CIRCLE ( 'NONE', #80, 11.00000000000000000 ) ;
#178 = CARTESIAN_POINT ( 'NONE',  ( -55.92217084702923600, 0.0000000000000000000, 0.0000000000000000000 ) ) ;
#179 = ORIENTED_EDGE ( 'NONE', *, *, #43, .T. ) ;
#180 = CIRCLE ( 'NONE', #51, 11.00000000000000000 ) ;
#181 = STYLED_ITEM ( 'NONE', ( #310 ), #227 ) ;
#182 = LINE ( 'NONE', #15, #209 ) ;
#183 = ADVANCED_FACE ( 'NONE', ( #303 ), #107, .T. ) ;
#184 =( NAMED_UNIT ( * ) PLANE_ANGLE_UNIT ( ) SI_UNIT ( $, .RADIAN. ) );
#185 = EDGE_LOOP ( 'NONE', ( #317, #55, #252, #41 ) ) ;
#186 = EDGE_CURVE ( 'NONE', #130, #274, #248, .T. ) ;
#187 = CIRCLE ( 'NONE', #20, 6.349999999999999600 ) ;
#188 = DIRECTION ( 'NONE',  ( -1.000000000000000000, -0.0000000000000000000, -0.0000000000000000000 ) ) ;
#189 = DIRECTION ( 'NONE',  ( 0.0000000000000000000, 0.0000000000000000000, -1.000000000000000000 ) ) ;
#190 = CARTESIAN_POINT ( 'NONE',  ( 3.036861539874806200, 0.0000000000000000000, 0.0000000000000000000 ) ) ;
#191 =( NAMED_UNIT ( * ) SI_UNIT ( $, .STERADIAN. ) SOLID_ANGLE_UNIT ( ) );
#192 = CARTESIAN_POINT ( 'NONE',  ( -9.122170847029236600, 0.0000000000000000000, 0.0000000000000000000 ) ) ;
#193 = CARTESIAN_POINT ( 'NONE',  ( 10.27782915297076200, 0.0000000000000000000, -1.615587133892632200E-024 ) ) ;
#194 = UNCERTAINTY_MEASURE_WITH_UNIT (LENGTH_MEASURE( 1.000000000000000100E-005 ), #77, 'distance_accuracy_value', 'NONE');
#195 = CARTESIAN_POINT ( 'NONE',  ( 10.27782915297076200, 0.0000000000000000000, -1.615587133892632200E-024 ) ) ;
#196 = SPHERICAL_SURFACE ( 'NONE', #62, 59.29999999999999700 ) ;
#197 = DIRECTION ( 'NONE',  ( 0.0000000000000000000, 0.0000000000000000000, 1.000000000000000000 ) ) ;
#198 = AXIS2_PLACEMENT_3D ( 'NONE', #149, #166, #144 ) ;
#199 = APPLICATION_PROTOCOL_DEFINITION ( 'draft international standard', 'automotive_design', 1998, #8 ) ;
#200 = CLOSED_SHELL ( 'NONE', ( #232, #18, #36, #213, #339, #183 ) ) ;
#201 = UNCERTAINTY_MEASURE_WITH_UNIT (LENGTH_MEASURE( 1.000000000000000100E-005 ), #343, 'distance_accuracy_value', 'NONE');
#202 = SPHERICAL_SURFACE ( 'NONE', #31, 11.00000000000000000 ) ;
#203 = FACE_OUTER_BOUND ( 'NONE', #296, .T. ) ;
#204 = PRESENTATION_LAYER_ASSIGNMENT (  '', '', ( #181 ) ) ;
#205 = MANIFOLD_SOLID_BREP ( 'Ðý×ª3', #200 ) ;
#206 = CIRCLE ( 'NONE', #9, 11.00000000000000000 ) ;
#207 = EDGE_CURVE ( 'NONE', #81, #274, #206, .T. ) ;
#208 = PRODUCT_DEFINITION_SHAPE ( 'NONE', 'NONE',  #305 ) ;
#209 = VECTOR ( 'NONE', #236, 1000.000000000000000 ) ;
#210 = EDGE_LOOP ( 'NONE', ( #102, #79, #30 ) ) ;
#211 = DIRECTION ( 'NONE',  ( -0.0000000000000000000, 1.000000000000000000, 1.224646799147353200E-016 ) ) ;
#212 = AXIS2_PLACEMENT_3D ( 'NONE', #193, #241, #10 ) ;
#213 = ADVANCED_FACE ( 'NONE', ( #246 ), #202, .F. ) ;
#214 = VERTEX_POINT ( 'NONE', #327 ) ;
#215 = CARTESIAN_POINT ( 'NONE',  ( -9.122170847029236600, 0.0000000000000000000, 0.0000000000000000000 ) ) ;
#216 = PRODUCT_DEFINITION_CONTEXT ( 'detailed design', #6, 'design' ) ;
#217 = CARTESIAN_POINT ( 'NONE',  ( -0.5519199926577972300, 0.0000000000000000000, 0.0000000000000000000 ) ) ;
#218 = MECHANICAL_DESIGN_GEOMETRIC_PRESENTATION_REPRESENTATION (  '', ( #181 ), #230 ) ;
#219 = CARTESIAN_POINT ( 'NONE',  ( -9.122170847029236600, 0.0000000000000000000, 0.0000000000000000000 ) ) ;
#220 = ORIENTED_EDGE ( 'NONE', *, *, #16, .F. ) ;
#221 = EDGE_CURVE ( 'NONE', #164, #283, #187, .T. ) ;
#222 = CARTESIAN_POINT ( 'NONE',  ( -9.122170847029236600, 0.0000000000000000000, 0.0000000000000000000 ) ) ;
#223 = CARTESIAN_POINT ( 'NONE',  ( -9.702612178336682500, 0.0000000000000000000, 0.0000000000000000000 ) ) ;
#224 = VERTEX_POINT ( 'NONE', #260 ) ;
#225 = EDGE_LOOP ( 'NONE', ( #148, #60, #244 ) ) ;
#226 = FILL_AREA_STYLE_COLOUR ( '', #239 ) ;
#227 = ADVANCED_BREP_SHAPE_REPRESENTATION ( '145024', ( #112, #205, #285 ), #92 ) ;
#228 = ORIENTED_EDGE ( 'NONE', *, *, #167, .T. ) ;
#229 = ORIENTED_EDGE ( 'NONE', *, *, #119, .T. ) ;
#230 =( GEOMETRIC_REPRESENTATION_CONTEXT ( 3 ) GLOBAL_UNCERTAINTY_ASSIGNED_CONTEXT ( ( #289 ) ) GLOBAL_UNIT_ASSIGNED_CONTEXT ( ( #279, #298, #301 ) ) REPRESENTATION_CONTEXT ( 'NONE', 'WORKASPACE' ) );
#231 = PRESENTATION_STYLE_ASSIGNMENT (( #154 ) ) ;
#232 = ADVANCED_FACE ( 'NONE', ( #257 ), #196, .T. ) ;
#233 = EDGE_CURVE ( 'NONE', #81, #290, #180, .T. ) ;
#234 = ORIENTED_EDGE ( 'NONE', *, *, #97, .T. ) ;
#235 = DIRECTION ( 'NONE',  ( 0.0000000000000000000, 0.0000000000000000000, 1.000000000000000000 ) ) ;
#236 = DIRECTION ( 'NONE',  ( -1.000000000000000000, -0.0000000000000000000, -0.0000000000000000000 ) ) ;
#237 = LINE ( 'NONE', #176, #250 ) ;
#238 = PRESENTATION_STYLE_ASSIGNMENT (( #47 ) ) ;
#239 = COLOUR_RGB ( '',1.000000000000000000, 1.000000000000000000, 1.000000000000000000 ) ;
#240 = DIRECTION ( 'NONE',  ( 0.0000000000000000000, 0.0000000000000000000, 1.000000000000000000 ) ) ;
#241 = DIRECTION ( 'NONE',  ( -0.0000000000000000000, 1.000000000000000000, 1.224646799147353200E-016 ) ) ;
#242 = AXIS2_PLACEMENT_3D ( 'NONE', #151, #143, #140 ) ;
#243 = SPHERICAL_SURFACE ( 'NONE', #242, 12.90000000000000000 ) ;
#244 = ORIENTED_EDGE ( 'NONE', *, *, #74, .F. ) ;
#245 = DIRECTION ( 'NONE',  ( -1.000000000000000000, -0.0000000000000000000, -0.0000000000000000000 ) ) ;
#246 = FACE_OUTER_BOUND ( 'NONE', #210, .T. ) ;
#247 = VECTOR ( 'NONE', #56, 1000.000000000000000 ) ;
#248 = LINE ( 'NONE', #346, #247 ) ;
#249 = EDGE_CURVE ( 'NONE', #164, #214, #182, .T. ) ;
#250 = VECTOR ( 'NONE', #245, 1000.000000000000000 ) ;
#251 = DIRECTION ( 'NONE',  ( 0.0000000000000000000, 0.0000000000000000000, 1.000000000000000000 ) ) ;
#252 = ORIENTED_EDGE ( 'NONE', *, *, #59, .F. ) ;
#253 = CARTESIAN_POINT ( 'NONE',  ( -9.122170847029236600, 0.0000000000000000000, 0.0000000000000000000 ) ) ;
#254 = DIRECTION ( 'NONE',  ( 0.0000000000000000000, -1.000000000000000000, 0.0000000000000000000 ) ) ;
#255 = CIRCLE ( 'NONE', #326, 6.349999999999999600 ) ;
#256 = CARTESIAN_POINT ( 'NONE',  ( -55.92217084702923600, 0.0000000000000000000, 0.0000000000000000000 ) ) ;
#257 = FACE_OUTER_BOUND ( 'NONE', #84, .T. ) ;
#258 = SPHERICAL_SURFACE ( 'NONE', #11, 12.90000000000000000 ) ;
#259 = ADVANCED_FACE ( 'NONE', ( #314 ), #170, .T. ) ;
#260 = CARTESIAN_POINT ( 'NONE',  ( 3.377829152970759800, 0.0000000000000000000, 3.631077759471902800E-015 ) ) ;
#261 = CIRCLE ( 'NONE', #212, 12.90000000000000000 ) ;
#262 = FILL_AREA_STYLE ('',( #126 ) ) ;
#263 = STYLED_ITEM ( 'NONE', ( #238 ), #205 ) ;
#264 = SURFACE_STYLE_USAGE ( .BOTH. , #4 ) ;
#265 = CARTESIAN_POINT ( 'NONE',  ( 1.877829152970762000, 0.0000000000000000000, 6.735557395310442000E-016 ) ) ;
#266 = CIRCLE ( 'NONE', #110, 59.29999999999999700 ) ;
#267 = EDGE_LOOP ( 'NONE', ( #95, #229, #220 ) ) ;
#268 = CARTESIAN_POINT ( 'NONE',  ( -0.9510398907041171000, 0.0000000000000000000, 0.0000000000000000000 ) ) ;
#269 = DIRECTION ( 'NONE',  ( 0.0000000000000000000, 0.0000000000000000000, -1.000000000000000000 ) ) ;
#270 = CARTESIAN_POINT ( 'NONE',  ( -9.702612178336682500, 0.0000000000000000000, 6.349999999999999600 ) ) ;
#271 = CIRCLE ( 'NONE', #146, 59.29999999999999700 ) ;
#272 = DIRECTION ( 'NONE',  ( 0.0000000000000000000, 1.000000000000000000, 0.0000000000000000000 ) ) ;
#273 = CARTESIAN_POINT ( 'NONE',  ( -55.92217084702923600, 0.0000000000000000000, 0.0000000000000000000 ) ) ;
#274 = VERTEX_POINT ( 'NONE', #14 ) ;
#275 = EDGE_CURVE ( 'NONE', #290, #274, #276, .T. ) ;
#276 = CIRCLE ( 'NONE', #103, 6.350000000000002300 ) ;
#277 = SPHERICAL_SURFACE ( 'NONE', #127, 11.00000000000000000 ) ;
#278 = DIRECTION ( 'NONE',  ( -1.000000000000000000, -0.0000000000000000000, -0.0000000000000000000 ) ) ;
#279 =( LENGTH_UNIT ( ) NAMED_UNIT ( * ) SI_UNIT ( .MILLI., .METRE. ) );
#280 = VERTEX_POINT ( 'NONE', #27 ) ;
#281 = AXIS2_PLACEMENT_3D ( 'NONE', #178, #272, #235 ) ;
#282 = FACE_OUTER_BOUND ( 'NONE', #225, .T. ) ;
#283 = VERTEX_POINT ( 'NONE', #23 ) ;
#284 = ADVANCED_FACE ( 'NONE', ( #159 ), #172, .T. ) ;
#285 = AXIS2_PLACEMENT_3D ( 'NONE', #330, #332, #344 ) ;
#286 = EDGE_CURVE ( 'NONE', #325, #283, #177, .T. ) ;
#287 = DIRECTION ( 'NONE',  ( 0.0000000000000000000, -1.000000000000000000, 0.0000000000000000000 ) ) ;
#288 = DIRECTION ( 'NONE',  ( -1.000000000000000000, -0.0000000000000000000, -0.0000000000000000000 ) ) ;
#289 = UNCERTAINTY_MEASURE_WITH_UNIT (LENGTH_MEASURE( 1.000000000000000100E-005 ), #279, 'distance_accuracy_value', 'NONE');
#290 = VERTEX_POINT ( 'NONE', #46 ) ;
#291 =( NAMED_UNIT ( * ) SI_UNIT ( $, .STERADIAN. ) SOLID_ANGLE_UNIT ( ) );
#292 = DIRECTION ( 'NONE',  ( 0.0000000000000000000, 0.0000000000000000000, 1.000000000000000000 ) ) ;
#293 =( NAMED_UNIT ( * ) PLANE_ANGLE_UNIT ( ) SI_UNIT ( $, .RADIAN. ) );
#294 = DIRECTION ( 'NONE',  ( 0.0000000000000000000, 0.0000000000000000000, 1.000000000000000000 ) ) ;
#295 = ORIENTED_EDGE ( 'NONE', *, *, #233, .T. ) ;
#296 = EDGE_LOOP ( 'NONE', ( #304, #234, #1 ) ) ;
#297 = ORIENTED_EDGE ( 'NONE', *, *, #28, .F. ) ;
#298 =( NAMED_UNIT ( * ) PLANE_ANGLE_UNIT ( ) SI_UNIT ( $, .RADIAN. ) );
#299 = PRESENTATION_LAYER_ASSIGNMENT (  '', '', ( #263 ) ) ;
#300 = ORIENTED_EDGE ( 'NONE', *, *, #221, .T. ) ;
#301 =( NAMED_UNIT ( * ) SI_UNIT ( $, .STERADIAN. ) SOLID_ANGLE_UNIT ( ) );
#302 = AXIS2_PLACEMENT_3D ( 'NONE', #155, #64, #240 ) ;
#303 = FACE_OUTER_BOUND ( 'NONE', #267, .T. ) ;
#304 = ORIENTED_EDGE ( 'NONE', *, *, #161, .F. ) ;
#305 = PRODUCT_DEFINITION ( 'Î´Öª', '', #323, #216 ) ;
#306 = ORIENTED_EDGE ( 'NONE', *, *, #118, .T. ) ;
#307 = ORIENTED_EDGE ( 'NONE', *, *, #275, .T. ) ;
#308 = AXIS2_PLACEMENT_3D ( 'NONE', #190, #94, #24 ) ;
#309 = EDGE_LOOP ( 'NONE', ( #113, #228, #69, #87 ) ) ;
#310 = PRESENTATION_STYLE_ASSIGNMENT (( #264 ) ) ;
#311 = ORIENTED_EDGE ( 'NONE', *, *, #98, .F. ) ;
#312 = ADVANCED_FACE ( 'NONE', ( #168 ), #133, .T. ) ;
#313 = DIRECTION ( 'NONE',  ( 0.0000000000000000000, 1.000000000000000000, 0.0000000000000000000 ) ) ;
#314 = FACE_OUTER_BOUND ( 'NONE', #185, .T. ) ;
#315 = MECHANICAL_DESIGN_GEOMETRIC_PRESENTATION_REPRESENTATION (  '', ( #263 ), #334 ) ;
#316 = FILL_AREA_STYLE_COLOUR ( '', #135 ) ;
#317 = ORIENTED_EDGE ( 'NONE', *, *, #74, .T. ) ;
#318 = DIRECTION ( 'NONE',  ( -1.000000000000000000, -0.0000000000000000000, -0.0000000000000000000 ) ) ;
#319 = AXIS2_PLACEMENT_3D ( 'NONE', #42, #288, #40 ) ;
#320 = EDGE_LOOP ( 'NONE', ( #341, #295, #307 ) ) ;
#321 = VERTEX_POINT ( 'NONE', #96 ) ;
#322 = DIRECTION ( 'NONE',  ( -0.0000000000000000000, 1.000000000000000000, 1.224646799147353200E-016 ) ) ;
#323 = PRODUCT_DEFINITION_FORMATION_WITH_SPECIFIED_SOURCE ( 'ÈÎºÎ', '', #134, .NOT_KNOWN. ) ;
#324 = DIRECTION ( 'NONE',  ( -1.000000000000000000, -0.0000000000000000000, -0.0000000000000000000 ) ) ;
#325 = VERTEX_POINT ( 'NONE', #101 ) ;
#326 = AXIS2_PLACEMENT_3D ( 'NONE', #345, #324, #294 ) ;
#327 = CARTESIAN_POINT ( 'NONE',  ( -0.9510398907041162100, 7.776507174585692200E-016, -6.349999999999999600 ) ) ;
#328 = CIRCLE ( 'NONE', #25, 12.90000000000000000 ) ;
#329 = ORIENTED_EDGE ( 'NONE', *, *, #16, .T. ) ;
#330 = CARTESIAN_POINT ( 'NONE',  ( 0.0000000000000000000, 0.0000000000000000000, 0.0000000000000000000 ) ) ;
#331 = LINE ( 'NONE', #270, #171 ) ;
#332 = DIRECTION ( 'NONE',  ( 0.0000000000000000000, 0.0000000000000000000, 1.000000000000000000 ) ) ;
#333 = FACE_OUTER_BOUND ( 'NONE', #309, .T. ) ;
#334 =( GEOMETRIC_REPRESENTATION_CONTEXT ( 3 ) GLOBAL_UNCERTAINTY_ASSIGNED_CONTEXT ( ( #194 ) ) GLOBAL_UNIT_ASSIGNED_CONTEXT ( ( #77, #128, #291 ) ) REPRESENTATION_CONTEXT ( 'NONE', 'WORKASPACE' ) );
#335 = CIRCLE ( 'NONE', #308, 6.349999999999999600 ) ;
#336 = SPHERICAL_SURFACE ( 'NONE', #302, 11.00000000000000000 ) ;
#337 = AXIS2_PLACEMENT_3D ( 'NONE', #268, #188, #292 ) ;
#338 = PRODUCT_RELATED_PRODUCT_CATEGORY ( 'part', '', ( #134 ) ) ;
#339 = ADVANCED_FACE ( 'NONE', ( #152 ), #125, .T. ) ;
#340 = FACE_OUTER_BOUND ( 'NONE', #320, .T. ) ;
#341 = ORIENTED_EDGE ( 'NONE', *, *, #207, .F. ) ;
#342 = AXIS2_PLACEMENT_3D ( 'NONE', #219, #322, #3 ) ;
#343 =( LENGTH_UNIT ( ) NAMED_UNIT ( * ) SI_UNIT ( .MILLI., .METRE. ) );
#344 = DIRECTION ( 'NONE',  ( 1.000000000000000000, 0.0000000000000000000, 0.0000000000000000000 ) ) ;
#345 = CARTESIAN_POINT ( 'NONE',  ( -0.9510398907041171000, 0.0000000000000000000, 0.0000000000000000000 ) ) ;
#346 = CARTESIAN_POINT ( 'NONE',  ( -0.5519199926577972300, 0.0000000000000000000, 6.350000000000001400 ) ) ;
#347 = SURFACE_SIDE_STYLE ('',( #158 ) ) ;
ENDSEC;
END-ISO-10303-21;
